Oops, an error
Loading. Please wait.

Asylum Part 3 Tab

640 views 1 this week
no commentswrite comment
1 2 3 4 5
please rate
Autoscroll
+/-
esc
set tempo
stop
Contributor
Tuning
D# G# C# F# A# D#
NEW! There's an official Ultimate Guitar app which is ideal
for learning songs when you're away from computer. Get the app
WARNING: You are trying to view
                                    content from Ultimate-Guitar.com
                                    in an unauthorized application,
                                    which is prohibited.

                                    Please use an official Ultimate
                                    Guitar Tabs application for iPhone,
                                    iPad or Android to access legitimate
                                    chords, guitar, bass, and drum tabs
                                    from Ultimate-Guitar.com database.

                                    Type "ultimate guitar tabs" in Apple
                                    App Store's or Android Market's
                                    search to find the application.
#----------------------------------PLEASE NOTE---------------------------------#
#This file is the author's own work and represents their interpretation of the #
#song. You may only use this file for private study, scholarship, or research. #
#------------------------------------------------------------------------------#

ASYLUM (PART III)
As recorded by Yngwie Malmsteen
(From the 1999 Album ALCHEMY)

Transcribed by Starnouf
	

Music by Yngwie Malmsteen

Am
x 0 2 2 1 0
	
F°
x x 3 1 0 1
	
C#m
x 4 2 x x x
	
Dm
x x 0 2 3 1
A/C#
x 4 x 2 2 0
	
D
x x 0 2 3 2
	
Gm
3 1 0 3 3 3
	
D/F#
2 x x 2 3 2
G°
3 1 x 0 2 3
	
A7b9
5 1 2 0 2 0
	
G#°/A
x 0 0 1 0 4
	
E
0 2 2 1 0 0
F/E
0 0 3 2 1 1
	
F#
x x 4 3 2 2
	
G/F#
x x 4 4 0 3
	
A
x 0 2 2 2 0

Bb/A
x 0 0 3 3 1
	
B
x 2 4 4 4 2
	
C/B
x 2 2 5 5 0
	
C#
x 4 3 x 2 1
D/C#
x 4 0 x 3 2
	
Eb/D
x x 0 0 4 3
	
Dm/E
0 0 3 2 3 1

Gtr I (Eb Ab Db Gb Bb Eb) - 'Guitar'
Gtr II (Eb Ab Db Gb Bb Eb) - 'Keyboards'

  Q=158
 4/4
  Gtr I
                           |--3--|
  W          +W            S  S  S  S  S  S  S  S  S  S S S  S S S  S S
|----------|------------|-14h15p14-12-11--------------------------------|
|----------|------------|----------------13-12-10-----------------------|
|----------|------------|-------------------------12-11-9-8-------------|
|----------|------------|-----------------------------------10-9-7------|
|----------|------------|------------------------------------------10-9-|
|-0--------|-(0)--------|-----------------------------------------------|
|
| Gtr II
|                          |--3--|
| W          +W            S  S  S  S  S  S  S  S  S  S S S  S S S  S S
|----------|------------|-14h15p14-12-11--------------------------------|
|----------|------------|----------------13-12-10-----------------------|
|-0--------|-(0)--------|-------------------------12-11-9-8-------------|
|-2--------|-(2)--------|-----------------------------------10-9-7------|
|-2--------|-(2)--------|------------------------------------------10-9-|
|-0--------|-(0)--------|-----------------------------------------------|


  S S S S S S S S Q  Q
|------------------------||
|------------------------||
|------------------------||
|------------------------||
|-7-6--------------------||
|-----8-7-5-3-2-0-0--0---||
|
| S S S S S S S S Q  Q
|------------------------||
|------------------------||
|-----------------0--0---||
|-----------------2--2---||
|-7-6-------------2--2---||
|-----8-7-5-3-2-0-0--0---||


  Am
  Gtr II
   W                                +W
   |                                 |
   /                                 /

  Gtr I
                                                        ~
   Q       Q       Q       Q         Q     Q      Q     Q
|-20tr19--17tr16--12tr11----------|------------------------|
|-------------------------13tr12--|-10tr9------------------|
|---------------------------------|--------9tr8------------|
|---------------------------------|--------------10tr9--7--|
|---------------------------------|------------------------|
|---------------------------------|------------------------|


  F°
  W
  |
  /

  |----6-----| |------6-------|  |------6-------| |--3--|
  S  S  S S  E S  S  S  S  S  S  S  S  S  S  S  S S  S  S E
|-------------------------10-12-13-12-10--------------------|
|--------------9-10-12-13----------------13-12-10-9---------|
|---------9-12--------------------------------------12-10-9-|
|-9-10-12---------------------------------------------------|
|-----------------------------------------------------------|
|-----------------------------------------------------------|


  +W
   |
   /

                           ~~~~~
   |----6-----| |--3--|
   S  S S  S  E S  S  S E  Q  Q
|--------------------------------|
|-12-10-9------------------------|
|---------12-10-9----------------|
|-----------------12-10-9-10--9--|
|--------------------------------|
|--------------------------------|


  Am
   W                                +W
   |                                 |
   /                                 /

                                                        ~
   Q       Q       Q       Q         Q     Q      Q     Q
|-20tr19--17tr16--12tr11----------|-------------------------|
|-------------------------13tr12--|-10tr9-------------------|
|---------------------------------|--------9tr8-------------|
|---------------------------------|--------------10tr9--7---|
|---------------------------------|-------------------------|
|---------------------------------|-------------------------|


  F°
  W
  |
  /

  |----6-----| |------6-------|  |------6-------| |----6-----|
  S  S  S S  E S  S  S  S  S  S  S  S  S  S  S  S S  S  E  S S
|-------------------------10-12-13-12-10-----------------------|
|--------------9-10-12-13----------------13-12-10-9----------9-|
|---------9-12--------------------------------------12-10-12---|
|-9-10-12------------------------------------------------------|
|--------------------------------------------------------------|
|--------------------------------------------------------------|


                                         C#m
  +W                                      W
   |                                      |
   /                                      /

                              ~~~~~~
   |----6-----|  |----6----|              |3-|  |---3----|  |--3--|  |--3--|
   E  S  S S  S  S S  S  S E  Q   Q       Q  E  S  S  E  E  E  E  E  E  E  E
|------------------------------------||-----------------16-21-16---------------|
|-10-12-10-9-------------------------||o-------------17----------17------------|
|------------12-10-9-----------------||-----------18----------------18---------|
|--------------------12-10-9---------||--------18----------------------18------|
|----------------------------12--11--||o-16-19----------------------------19---|
|------------------------------------||----------------------------------------|


  +W                         W
   |
   /

                     ~~
   |3-|  |---3----|          |------6-------|  |-----6-----|  |------6-------|  |-----6-----|
   Q  E  S  S  E  E  H       S  S  S  S  S  S  S  S  S  S  E  S  S  S  S  S  S  S  S  S  S  E
|----------------16-21----|-21-19-17-16----------------16-17-19-17-16----------------------16-|
|-------------17----------|-------------19-17-16-17-19----------------19-17-16----16-17-19----|
|----------18-------------|----------------------------------------------------18-------------|
|-------18----------------|-------------------------------------------------------------------|
|-16-19-------------------|-------------------------------------------------------------------|
|-------------------------|-------------------------------------------------------------------|


   W
                                                      ~~
   |------6-------|  |-----6-----|  |------6-------|
   S  S  S  S  S  S  S  S  S  S  E  S  S  S  S  S  S  Q
|-17-16---------------------------------------------------||
|-------19-17-16----------16-----------------------------o||
|----------------18-17-18----18-17-14-13------------------||
|----------------------------------------16-14-13---------||
|-------------------------------------------------16-15--o||
|---------------------------------------------------------||


  Dm                      A/C#                  Dm                      D
   H                       H                     H                       H
   |                       |                     |                       |
   /                       /                     /                       /

                                                                               |--3--|
   S  S  S  S  S  S  S  S  S S  S S  S S  S S    S  S  S  S  S  S  S  S  S  S  S  S  S  S  S  S  S
|-13-10----------10-13-10-12-9---------9-12-9-|-13-10----------10-13-10-14h17p14----------14-17-14-|
|-------10----10---------------10---10--------|-------10----10-------------------15----15----------|
|----------10---------------------9-----------|----------10-------------------------14-------------|
|---------------------------------------------|----------------------------------------------------|
|---------------------------------------------|----------------------------------------------------|
|---------------------------------------------|----------------------------------------------------|


  Gm                      D/F#
   H                       H
   |                       |
   /                       /

                           |--3--|
   S  S  S  S  S  S  S  S  S  S  S  S  S  S  S  S  S
|-18-15----------15-18-15-14-17-14----------14-17-14---|
|-------15----15-------------------15----15------------|
|----------15-------------------------14---------------|
|------------------------------------------------------|
|------------------------------------------------------|
|------------------------------------------------------|


  Gm                         G°
   H                          H
   |                          |
   /                          /

   |--3--|
   S  S  S  S  S  S  S  S  S  S  S  S  S  S  S  S  S
|-15h18p15----------15-18-15-18-15----------15-18-15-|
|----------15----15----------------17----17----------|
|-------------15----------------------18-------------|
|----------------------------------------------------|
|----------------------------------------------------|
|----------------------------------------------------|


  Dm                                             A7b9
   W                                              W
   |                                              |
   /                                              /

                                                  |--3--|
   S  S  S  S  S  S  E  S  S  S  S  S  S  S  S    S  S  S  S  S  S  S  E  S S  S  S  S S  S S
|-17-13----------13-17-13-10----------10-13-10-|-12h15p12----------12-15-12-9----------9-12-9-|
|-------15----15-------------10----10----------|----------14----14------------11----11--------|
|----------14-------------------10-------------|-------------15------------------12-----------|
|----------------------------------------------|----------------------------------------------|
|----------------------------------------------|----------------------------------------------|
|----------------------------------------------|----------------------------------------------|


  G#°/A                                             A7b9
   W                                                 W
   |                                                 |
   /                                                 /

                                                                             ~~~~~
   |--3--|
   S  S  S  S  S  S  S  S  S  S  S  S  S  S  S  E    S  S  S  S  S  S  S  S  H
|-10h13p10----------10-13-10-16-13----------13-16-|-15-12----------12-15-12-15b18----|
|----------12----12----------------15----15-------|-------14----14-------------------|
|-------------13----------------------16----------|----------15----------------------|
|-------------------------------------------------|----------------------------------|
|-------------------------------------------------|----------------------------------|
|-------------------------------------------------|----------------------------------|


  Dm                A/C#              Dm                A/C#
   Q                 Q                 Q                 Q
   |                 |                 |                 |
   /                 /                 /                 /

   |------6-------|  |------6-------|  |------6-------|  |------6-------|
   S  S  S  S  S  S  S  S  S  S  S  S  S  S  S  S  S  S  S  S  S  S  S  S
|-13-12----------12-13-12----------12-13-12----------12-13-12-13-12-------|
|-------15-14-15----------15-14-15----------15-14-15----------------15-14-|
|-------------------------------------------------------------------------|
|-------------------------------------------------------------------------|
|-------------------------------------------------------------------------|
|-------------------------------------------------------------------------|


                          Q.=86
  Dm
                      1/4   6/8
   W                   Q     W        W            W             W
   |
   /

               ~~                                        ~~~
   E  E  E  E  H       Q     W        H    Q      +Q.   +Q.      H.
|----13-17-21-22----||----||--------|-----------|-------------|-12b14r====|
|-15----------------||----||--------|-----------|-------------|-----------|
|-------------------||----||--------|------7b9r=|=(7)---(7)---|-----------|
|-------------------||----||--------|-----------|-------------|-----------|
|-------------------||----||--------|-----------|-------------|-----------|
|-------------------||----||--------|-----------|-------------|-----------|


   +Q    T  T  T  T  T  T  T  T  T  T  T  T  T  T T  T
|-(12)--10----------------10-12-13-12-10---------------|
|----------13-12-10-12-13----------------13-12-10-9-10-|
|------------------------------------------------------|
|------------------------------------------------------|
|------------------------------------------------------|
|------------------------------------------------------|


                                                                  ~~~~~~~~~~~~
   T  T  T  T  T  T  T  T  T  T  T  T  a      +E   +Q      a     +Q.    Q.
|-10-12-13-12-10-12-10----10----------12b14==(12)r(12)--|-22b24-(22)---22pb24----|
|----------------------13----13-12-10-------------------|------------------------|
|-------------------------------------------------------|------------------------|
|-------------------------------------------------------|------------------------|
|-------------------------------------------------------|------------------------|
|-------------------------------------------------------|------------------------|


                    E
  Gtr II
    W               H.                   +H.
                    |                     |
                    /                     /

  Gtr I
    ~~~~
   +Q   E  Q.       E  E E S S S S S S    E  E E S S S S S S
|-(22)----------||---------------------|---------------------|
|---------------||o--------------------|---------------------|
|---------------||---------------------|---------------------|
|---------------||---------3-2-----2-3-|---------3-2-----2-3-|
|-------x-14\---||o------------5-5-----|-------------5-5-----|
|---------------||--0--0-0-------------|--0--0-0-------------|


  F/E
  H.                   +H.
  |                     |
  /                     /

  E  E E S S S S S S    E  E E S S S S S S
|--------------------|-----------------------||
|--------------------|----------------------o||
|--------------------|-----------------------||
|--------3-2-----2-3-|---------3-2-----2-3---||
|------------5-5-----|-------------5-5------o||
|-0--0-0-------------|--0--0-0---------------||


  F#                                         G/F#
  H.                   +H.                   H.
  |                     |                    |
  /                     /                    /

  E  E E S S S S S S    E  E E S S S S S S   E  E E S S S S S S
|--------------------|---------------------|--------------------|
|--------------------|---------------------|--------------------|
|--------------------|---------------------|--------------------|
|--------------------|---------------------|--------------------|
|--------------------|---------------------|--------------------|
|-2--2-2-3-2-0-0-2-3-|--2--2-2-3-2-0-0-2-3-|-2--2-2-3-2-0-0-2-3-|


                        A
  +H.                   H.                   +H.
   |                    |                     |
   /                    /                     /

   E  E E S S S S S S   E  E E S S S S S S    E  E E S S S S S S
|---------------------|--------------------|---------------------|
|---------------------|--------------------|---------------------|
|---------------------|--------------------|---------------------|
|---------------------|--------------------|---------------------|
|---------------------|--------------------|---------------------|
|--2--2-2-3-2-0-0-2-3-|-5--5-5-6-5-3-3-5-6-|--5--5-5-6-5-3-3-5-6-|


  Bb/A                                  B
  H.                   +H.              H.
  |                     |               |
  /                     /               /

                                   ~~~
  E  E E S S S S S S    E  E E E   Q    E  E E S S S S S S
|--------------------|----------------|--------------------|
|--------------------|----------------|--------------------|
|--------------------|----------------|--------------------|
|--------------------|-----------/11--|--------------------|
|--------------------|----------------|-2--2-2-3-2-----2-3-|
|-5--5-5-6-5-3-3-5-6-|--5--5-5-5------|------------5-5-----|


                        C/B
  +H.                   H.                   +H.
   |                    |                     |
   /                    /                     /

   E  E E S S S S S S   E  E E S S S S S S    E  E E  Q.
|---------------------|--------------------|----------------|
|---------------------|--------------------|----------------|
|---------------------|--------------------|----------------|
|---------------------|--------------------|----------------|
|--2--2-2-3-2-----2-3-|-2--2-2-3-2-----2-3-|--2--2-2-15\----|
|-------------5-5-----|------------5-5-----|----------------|


  C#                                         D/C#
  H.                   +H.                   H.
  |                     |                    |
  /                     /                    /

  E  E E S S S S S S    E  E E S S S S S S   E  E E S S S S S S
|--------------------|---------------------|--------------------|
|--------------------|---------------------|--------------------|
|--------------------|---------------------|--------------------|
|--------------------|---------------------|--------------------|
|-4--4-4-5-4-2-2-4-5-|--4--4-4-5-4-2-2-4-5-|-4--4-4-5-4-2-2-4-5-|
|--------------------|---------------------|--------------------|


             D
  +H.        H.                   +H.
   |         |                     |
   /         /                     /

   H.        E  E E S S S S S S    E  E E S S S S S S
|----------|--------------------|------------------------|
|--x\------|--------------------|------------------------|
|--x\------|--------------------|------------------------|
|----------|--------------------|------------------------|
|----------|-5--5-5-6-5-3-3-5-6-|--5--5-5-6-5-3-3-5-6----|
|----------|--------------------|------------------------|


  Eb/D                                        E
  H.                   +H.                    H.
  |                     |                     |
  /                     /                     /

  E  E E S S S S S S    E  E E S S S S S S    E  E E S S S S S S
|--------------------|---------------------||--------------------|
|--------------------|---------------------||--------------------|
|--------------------|---------------------||--------------------|
|--------------------|---------------------||--------3-2-----2-3-|
|-5--5-5-6-5-3-3-5-6-|--5--5-5-6-5-3-3-5-6-||------------5-5-----|
|--------------------|---------------------||-0--0-0-------------|


                       F/E
  +H.                  H.                   +H.
   |                   |                     |
   /                   /                     /

      ~
   E  Q  S S S S S S   E  E E S S S S S S    E  E E S S S S S S
|--------------------|--------------------|---------------------|
|--------------------|--------------------|---------------------|
|--------------------|--------------------|---------------------|
|-----2--3-2-----2-3-|--------3-2-----2-3-|---------3-2-----2-3-|
|------------5-5-----|------------5-5-----|-------------5-5-----|
|--0-----------------|-0--0-0-------------|--0--0-0-------------|


  E                                          Dm/E
  H.                   +H.                   H.
  |                     |                    |
  /                     /                    /

  E  E E S S S S S S    E  E E S S S S S S   E  E E S S S S S S
|--------------------|---------------------|--------------------|
|--------------------|---------------------|--------------------|
|--------------------|---------------------|--------------------|
|--------3-2-----2-3-|---------3-2-----2-3-|--------3-2-----2-3-|
|------------5-5-----|-------------5-5-----|------------5-5-----|
|-0--0-0-------------|--0--0-0-------------|-0--0-0-------------|


             F#
  +H.        H.                   +H.
   |         |                     |
   /         /                     /

   H.        E  E E S S S S S S    E  E E S S S S S S
|----------|--------------------|------------------------|
|----------|--------------------|------------------------|
|----------|--------------------|------------------------|
|----------|--------------------|------------------------|
|-20\------|--------------------|------------------------|
|----------|-2--2-2-3-2-0-0-2-3-|--2--2-2-3-2-0-0-2-3----|


  G/F#                                       A
  H.                   +H.                   H.
  |                     |                    |
  /                     /                    /

  E  E E S S S S S S    E  E E S S S S S S   E  E E S S S S S S
|--------------------|---------------------|--------------------|
|--------------------|---------------------|--------------------|
|--------------------|---------------------|--------------------|
|--------------------|---------------------|--------------------|
|--------------------|---------------------|--------------------|
|-2--2-2-3-2-0-0-2-3-|--2--2-2-3-2-0-0-2-3-|-5--5-5-6-5-3-3-5-6-|


                        Bb/A
  +H.                   H.                   +H.
   |                    |                     |
   /                    /                     /

   E  E E S S S S S S   E  E E S S S S S S    E  E E S S S S S S
|---------------------|--------------------|---------------------|
|---------------------|--------------------|---------------------|
|---------------------|--------------------|---------------------|
|---------------------|--------------------|---------------------|
|---------------------|--------------------|---------------------|
|--5--5-5-6-5-3-3-5-6-|-5--5-5-6-5-3-3-5-6-|--5--5-5-6-5-3-3-5-6-|


  B                                          C/B
  H.                   +H.                   H.
  |                     |                    |
  /                     /                    /

  E  E E S S S S S S    E  E E S S S S S S   E  E E S S S S S S
|--------------------|---------------------|--------------------|
|--------------------|---------------------|--------------------|
|--------------------|---------------------|--------------------|
|--------------------|---------------------|--------------------|
|-2--2-2-3-2-----2-3-|--2--2-2-3-2-----2-3-|-2--2-2-3-2-----2-3-|
|------------5-5-----|-------------5-5-----|------------5-5-----|


                        C#
  +H.                   H.                   +H.
   |                    |                     |
   /                    /                     /

   E  E E S S S S S S   E  E E S S S S S S    E  E E S S S S S S
|---------------------|--------------------|---------------------|
|---------------------|--------------------|---------------------|
|---------------------|--------------------|---------------------|
|---------------------|--------------------|---------------------|
|--2--2-2-3-2-----2-3-|-4--4-4-5-4-2-2-4-5-|--4--4-4-5-4-2-2-4-5-|
|-------------5-5-----|--------------------|---------------------|


  D/C#                                    D
  H.                  +H.                 H.
  |                    |                  |
  /                    /                  /

     ~                 ~~~
  E  Q  S S S S S S    Q.   S S S S S S   E  E E S S S S S S
|-------------------|-------------------|--------------------|
|-------------------|-------------------|--------------------|
|----6--------------|--6----7-6-4-4-6-7-|-7--7-7-------------|
|-------------------|-------------------|-7--7-7-------------|
|-4-----5-4-2-2-4-5-|-------------------|-5--5-5-6-5-----5-6-|
|-------------------|-------------------|------------8-8-----|


                        Eb/D
  +H.                   H.                   +H.
   |                    |                     |
   /                    /                     /

   E  E E S S S S S S   E  E E S S S S S S    E  E E S S S S S S
|---------------------|--------------------|---------------------||
|---------------------|--------------------|---------------------||
|--7--7-7-------------|-7--7-7-------------|--7--7-7-------------||
|--7--7-7-------------|-7--7-7-------------|--7--7-7-------------||
|--5--5-5-6-5-----5-6-|-5--5-5-6-5-----5-6-|--5--5-5-6-5-----5-6-||
|-------------8-8-----|------------8-8-----|-------------8-8-----||


  E                                              F/E
  H.                     +H.                     H.
  |                       |                      |
  /                       /                      /

  E  E E S S  S  S S S    E  E E S S  S  S S S   E  E E S S  S  S S S
|----------------------|-----------------------|----------------------|
|----------------------|-----------------------|----------------------|
|----------------------|-----------------------|----------------------|
|-9--9-9---------------|--9--9-9---------------|-9--9-9---------------|
|-7--7-7-8-7-------7-8-|--7--7-7-8-7-------7-8-|-7--7-7-8-7-------7-8-|
|------------10-10-----|-------------10-10-----|------------10-10-----|


             E
  +H.        H.                   +H.
   |         |                     |
   /         /                     /

   ~~~
   H.        E  E E S S S S S S    E  E E S S S S S S
|----------|--------------------|------------------------|
|----------|--------------------|------------------------|
|----------|--------------------|------------------------|
|----------|--------3-2-----2-3-|---------3-2-----2-3----|
|-17\------|------------5-5-----|-------------5-5--------|
|----------|-0--0-0-------------|--0--0-0----------------|


  Dm/E                                       F#
  H.                   +H.                   H.
  |                     |                    |
  /                     /                    /

  E  E E S S S S S S    E  E E S S S S S S   E  E E S S S S S S
|--------------------|---------------------|--------------------|
|--------------------|---------------------|--------------------|
|--------------------|---------------------|--------------------|
|--------3-2-----2-3-|---------3-2-----2-3-|--------------------|
|------------5-5-----|-------------5-5-----|--------------------|
|-0--0-0-------------|--0--0-0-------------|-2--2-2-3-2-0-0-2-3-|


                        G/F#
  +H.                   H.                   +H.
   |                    |                     |
   /                    /                     /

   E  E E S S S S S S   E  E E S S S S S S    E  E E S S S S S S
|---------------------|--------------------|---------------------|
|---------------------|--------------------|---------------------|
|---------------------|--------------------|---------------------|
|---------------------|--------------------|---------------------|
|---------------------|--------------------|---------------------|
|--2--2-2-3-2-0-0-2-3-|-2--2-2-3-2-0-0-2-3-|--2--2-2-3-2-0-0-2-3-|


  A                                          Bb/A
  H.                   +H.                   H.
  |                     |                    |
  /                     /                    /

  E  E E S S S S S S    E  E E S S S S S S   E  E E S S S S S S
|--------------------|---------------------|--------------------|
|--------------------|---------------------|--------------------|
|--------------------|---------------------|--------------------|
|--------------------|---------------------|--------------------|
|--------------------|---------------------|--------------------|
|-5--5-5-6-5-3-3-5-6-|--5--5-5-6-5-3-3-5-6-|-5--5-5-6-5-3-3-5-6-|


                        B
  +H.                   H.                   +H.
   |                    |                     |
   /                    /                     /

   E  E E S S S S S S   E  E E S S S S S S    E  E E S S S S S S
|---------------------|--------------------|---------------------|
|---------------------|--------------------|---------------------|
|---------------------|--------------------|---------------------|
|---------------------|--------------------|---------------------|
|---------------------|-2--2-2-3-2-----2-3-|--2--2-2-3-2-----2-3-|
|--5--5-5-6-5-3-3-5-6-|------------5-5-----|-------------5-5-----|


  C/B                                        C#
  H.                   +H.                   H.
  |                     |                    |
  /                     /                    /

  E  E E S S S S S S    E  E E S S S S S S   E  E E S S S S S S
|--------------------|---------------------|--------------------|
|--------------------|---------------------|--------------------|
|--------------------|---------------------|--------------------|
|--------------------|---------------------|--------------------|
|-2--2-2-3-2-----2-3-|--2--2-2-3-2-----2-3-|-4--4-4-5-4-2-2-4-5-|
|------------5-5-----|-------------5-5-----|--------------------|


                        D/C#
  +H.                   H.                   +H.
   |                    |                     |
   /                    /                     /

   E  E E S S S S S S   E  E E S S S S S S    E  E E S S S S S S
|---------------------|--------------------|---------------------|
|---------------------|--------------------|---------------------|
|---------------------|--------------------|---------------------|
|---------------------|--------------------|---------------------|
|--4--4-4-5-4-2-2-4-5-|-4--4-4-5-4-2-2-4-5-|--4--4-4-5-4-2-2-4-5-|
|---------------------|--------------------|---------------------|


  D                               Eb/D
  H.               +H.            H.
  |                 |             |
  /                 /             /

  E  E E E Q       +Q.   +E  Q    E  E E S S S S S S
|----------------|--------------|--------------------|
|----------------|--------------|--------------------|
|----------7b9===|=(7)r==(7)----|--------------------|
|----------------|--------------|--------------------|
|----4-4---------|--------------|-5--5-5-6-5-3-3-5-6-|
|----------------|--------------|--------------------|


                         E
  +H.                    H.                   +H.
   |                     |                     |
   /                     /                     /

   E  E E S S S S S S    E  E E S S S S S S    E  E E S S S S S S
|---------------------||--------------------|----------------------|
|---------------------||--------------------|----------------------|
|---------------------||--------------------|----------------------|
|---------------------||--------3-2-----2-3-|---------3-2-----2-3--|
|--5--5-5-6-5-3-3-5-6-||------------5-5-----|-------------5-5------|
|---------------------||-0--0-0-------------|--0--0-0--------------|


  F/E                                        E
  H.                   +H.                   H.
  |                     |                    |
  /                     /                    /

  E  E E S S S S S S    E  E E S S S S S S   E  E E S S S S S S
|--------------------|---------------------|--------------------|
|--------------------|---------------------|--------------------|
|--------------------|---------------------|--------------------|
|--------3-2-----2-3-|---------3-2-----2-3-|--------3-2-----2-3-|
|------------5-5-----|-------------5-5-----|------------5-5-----|
|-0--0-0-------------|--0--0-0-------------|-0--0-0-------------|


                        Dm/E
  +H.                   H.                   +H.
   |                    |                     |
   /                    /                     /

   E  E E S S S S S S   E  E E S S S S S S    E  E E S S S S S S
|---------------------|--------------------|---------------------|
|---------------------|--------------------|---------------------|
|---------------------|--------------------|---------------------|
|---------3-2-----2-3-|--------3-2-----2-3-|---------3-2-----2-3-|
|-------------5-5-----|------------5-5-----|-------------5-5-----|
|--0--0-0-------------|-0--0-0-------------|--0--0-0-------------|


  F#                                         G/F#
  H.                   +H.                   H.
  |                     |                    |
  /                     /                    /

  E  E E S S S S S S    E  E E S S S S S S   E  E E S S S S S S
|--------------------|---------------------|--------------------|
|--------------------|---------------------|--------------------|
|--------------------|---------------------|--------------------|
|--------------------|---------------------|--------------------|
|--------------------|---------------------|--------------------|
|-2--2-2-3-2-0-0-2-3-|--2--2-2-3-2-0-0-2-3-|-2--2-2-3-2-0-0-2-3-|


                        A
  +H.                   H.                   +H.
   |                    |                     |
   /                    /                     /

   E  E E S S S S S S   E  E E S S S S S S    E  E E S S S S S S
|---------------------|--------------------|---------------------|
|---------------------|--------------------|---------------------|
|---------------------|--------------------|---------------------|
|---------------------|--------------------|---------------------|
|---------------------|--------------------|---------------------|
|--2--2-2-3-2-0-0-2-3-|-5--5-5-6-5-3-3-5-6-|--5--5-5-6-5-3-3-5-6-|


  Bb/A                                       B
  H.                   +H.                   H.
  |                     |                    |
  /                     /                    /

  E  E E S S S S S S    E  E E S S S S S S   E  E E S S S S S S
|--------------------|---------------------|--------------------|
|--------------------|---------------------|--------------------|
|--------------------|---------------------|--------------------|
|--------------------|---------------------|--------------------|
|--------------------|---------------------|-2--2-2-3-2-----2-3-|
|-5--5-5-6-5-3-3-5-6-|--5--5-5-6-5-3-3-5-6-|------------5-5-----|


                        C/B
  +H.                   H.                   +H.
   |                    |                     |
   /                    /                     /

   E  E E S S S S S S   E  E E S S S S S S    E  E E S S S S S S
|---------------------|--------------------|---------------------|
|---------------------|--------------------|---------------------|
|---------------------|--------------------|---------------------|
|---------------------|--------------------|---------------------|
|--2--2-2-3-2-----2-3-|-2--2-2-3-2-----2-3-|--2--2-2-3-2-----2-3-|
|-------------5-5-----|------------5-5-----|-------------5-5-----|


  C#                                         D/C#
  H.                   +H.                   H.
  |                     |                    |
  /                     /                    /

  E  E E S S S S S S    E  E E S S S S S S   E  E E S S S S S S
|--------------------|---------------------|--------------------|
|--------------------|---------------------|--------------------|
|--------------------|---------------------|--------------------|
|--------------------|---------------------|--------------------|
|-4--4-4-5-4-2-2-4-5-|--4--4-4-5-4-2-2-4-5-|-4--4-4-5-4-2-2-4-5-|
|--------------------|---------------------|--------------------|


                        D
  +H.                   H.                   +H.
   |                    |                     |
   /                    /                     /

   E  E E S S S S S S   E  E E S S S S S S    E  E E S S S S S S
|---------------------|--------------------|---------------------|
|---------------------|--------------------|---------------------|
|---------------------|--------------------|---------------------|
|---------------------|--------------------|---------------------|
|--4--4-4-5-4-2-2-4-5-|-5--5-5-6-5-3-3-5-6-|--5--5-5-6-5-3-3-5-6-|
|---------------------|--------------------|---------------------|


  Eb/D                                       E
  H.                   +H.                   H.
  |                     |                    |
  /                     /                    /

  E  E E S S S S S S    E  E E S S S S S S   E  E E S S S S S S
|--------------------|---------------------|--------------------|
|--------------------|---------------------|--------------------|
|--------------------|---------------------|--------------------|
|--------------------|---------------------|--------3-2-----2-3-|
|-5--5-5-6-5-3-3-5-6-|--5--5-5-6-5-3-3-5-6-|------------5-5-----|
|--------------------|---------------------|-0--0-0-------------|


                        F/E
  +H.                   H.                   +H.
   |                    |                     |
   /                    /                     /

   E  E E S S S S S S   E  E E S S S S S S    E  E E S S S S S S
|---------------------|--------------------|---------------------*|
|---------------------|--------------------|---------------------*|
|---------------------|--------------------|---------------------*|
|---------3-2-----2-3-|--------3-2-----2-3-|---------3-2-----2-3-*|
|-------------5-5-----|------------5-5-----|-------------5-5-----*|
|--0--0-0-------------|-0--0-0-------------|--0--0-0-------------*|



Duration Legend
---------------
W - whole; H - half; Q - quarter; E - 8th; S - 16th; T - 32nd; X - 64th; a - acciaccatura
+ - note tied to previous; . - note dotted; .. - note double dotted
Uncapitalized letters represent notes that are staccato (1/2 duration)
Irregular groupings are notated above the duration line
Duration letters will always appear directly above the note/fret number it represents the
duration for.  Duration letters with no fret number below them represent rests.  Multi-
bar rests are notated in the form Wxn, where n is the number of bars to rest for.  Low
melody durations appear below the staff

Tablature Legend
----------------
 h   - hammer-on
 p   - pull-off
 b   - bend
 pb  - pre-bend
 r   - bend release (if no number after the r, then release immediately)
 /\  - slide into or out of (from/to "nowhere")
 s   - legato slide
 S   - shift slide
<n> - natural harmonic
[n]  - artificial harmonic
n(n) - tapped harmonic
 ~   - vibrato
 tr  - trill
 T   - tap
 TP  - trem. picking
 PM  - palm muting
\n/  - tremolo bar dip; n = amount to dip
 \n  - tremolo bar down
 n/  - tremolo bar up
/n\  - tremolo bar inverted dip
 =   - hold bend; also acts as connecting device for hammers/pulls
 <> - volume swell (louder/softer)
 x   - on rhythm slash represents muted slash
 o   - on rhythm slash represents single note slash

Misc Legend
-----------
 |  - bar
||  - double bar
||o - repeat start
o|| - repeat end
*|  - double bar (ending)
 :  - bar (freetime)
 $  - Segno
 &  - Coda
Tempo markers - <E/E./Q/Q./H/H.> = BPM(8/16=s8/s16), where s8 = swing 8ths, s16 = swing 16ths

comments
We did not receive enough feedback on this tab! Please rate:
print report bad tab
1 2 3 4 5
I want to post or [tab]
guest
You may want to rate the tab now too:
select rating
Please do not post tabs as comments. Select "correction" instead!