Oops, an error
Loading. Please wait.

Bad Blood Tab

ver1
ver1

Whole song

Interactive

More versions @911Tabs.com
2,102 views 3 this week
no commentswrite comment
1 2 3 4 5
excellent!
x 3
Autoscroll
+/-
esc
set tempo
stop
Contributor
Hey! There's an official Ultimate Guitar app which is ideal
for learning songs when you're away from computer. Get the app
WARNING: You are trying to view
                                    content from Ultimate-Guitar.com
                                    in an unauthorized application,
                                    which is prohibited.

                                    Please use an official Ultimate
                                    Guitar Tabs application for iPhone,
                                    iPad or Android to access legitimate
                                    chords, guitar, bass, and drum tabs
                                    from Ultimate-Guitar.com database.

                                    Type "ultimate guitar tabs" in Apple
                                    App Store's or Android Market's
                                    search to find the application.
Yngwie Malmsteen
Bad Blood

Gtr I (Eb Ab Db Gb Bb Eb) - 'Guitar I'
Gtr II (Eb Ab Db Gb Bb Eb) - 'Guitar II'

 Intro
  E=240
                                   A5                (Am7)
 6/8
  Gtr I
                                            PM
  W        W        Q  E E Q       Q.   E E E   Q  E  E E E
|--------|--------|------------||-------------|-------------|
|--------|--------|------------||o------------|-----------5-|
|--------|--------|------------||--2------2---|-2--2----5---|
|--------|--------|------------||--2------2-2-|-2--2-/7-----|
|--------|--------|--------x\--||o-0------0-0-|-0--0--------|
|--------|--------|------------||-------------|-------------|


               (Am6)(Am+5)      A5             (Am7)
  ~~           ~~                 PM  PM
  Q.   E E E   Q.   E E E   Q   E E E E   Q  E  E E E
|------------|------------|-------------|--------------|
|-8--------8p|=7----6p5---|-------------|-----------5--|
|--------5---|----------5-|-----2---2---|-2--2----5----|
|------7-----|------------|-x\--2---2---|-2--2-/7------|
|------------|------------|-----0-0---0-|-0--0---------|
|------------|------------|-------------|--------------|


           (Am/maj7)       (Am7)
  ~~                  ~~~
                           |-3-|
  Q.   E E a   +E    +Q.   S S S E E
|------------------|------------------||
|-8--------7b9-(7)-|-(7)---6h8p6p5---o||
|--------5---------|---------------5--||
|------7-----------|------------------||
|------------------|-----------------o||
|------------------|------------------||


  A5
                           |-3--|
   Q.    +E.  S  E    +E   S  S S S  S S  S S S S  S
|------------11p10-|-(10)-11-10-8---10-8--------------||
|-10----(10)-------|--------------8------10-----------||
|------------------|------------------------9p8-7-----||
|------------------|------------------------------10--||
|------------------|----------------------------------||
|------------------|----------------------------------||


   Verse
    Am7                                    Am6
    Gtr I
                                                                      ~
     +S  S S S E  E Q    W        W        E a   +S  S S   a    +S    Q   E
||---------------------|--------|--------|-------------5---8b10-(8)---8---5--|
||o--------------------|--------|--------|-----------5-----------------------|
||-------------x\------|--------|--------|---7b9-(7)-------------------------|
||--(10)-x-x-x---------|--------|--------|-----------------------------------|
||o--------------------|--------|--------|-----------------------------------|
||---------------------|--------|--------|-----------------------------------|
|
|   Gtr II
|                                                      |-----3------|
|     H.                 W        W        E      E    S S          S E E E
||---------------------|--------|--------|--------3--------------------------|
||o--------------------|--------|--------|-------------4p3p=========1-3-4-5--|
||----2----------------|--------|--------|-----------------------------------|
||---------------------|--------|--------|-----------------------------------|
||o--------------------|--------|--------|-----------------------------------|
||---------------------|--------|--------|-----------------------------------|


  Am7                                        Am6
                    ~~~
  a   +S  S  Q     +Q.     W        W         a     +H.
|------------------------|--------|--------|-12b14-(12)----|
|---------5--------------|--------|--------|---------------|
|-7b9-(7)----5-----(5)---|--------|--------|---------------|
|------------------------|--------|--------|---------------|
|------------------------|--------|--------|---------------|
|------------------------|--------|--------|---------------|
|
|                   ~~~
|      S  E.   +E  +Q.     W        W         a     +H.
|------------------------|--------|--------|-12b14-(12)----|
|------5-----------------|--------|--------|---------------|
|---------5----(5)-(5)---|--------|--------|---------------|
|------------------------|--------|--------|---------------|
|------------------------|--------|--------|---------------|
|------------------------|--------|--------|---------------|


  Am7
                    |--3--|
   +E   S  S  S  S  S  S  S  S S  E   W
|-(12)-10---------------------------|--------|
|---------13-10----10----12---------|--------|
|---------------12----12----12-9----|--------|
|--------------------------------10-|--------|
|-----------------------------------|--------|
|-----------------------------------|--------|
|
|  +E   E     E     E        Q        W
|-(12)-11----10---------------------|--------|
|------------------13---------------|--------|
|-----------------------------------|--------|
|-----------------------------------|--------|
|-----------------------------------|--------|
|-----------------------------------|--------|


           Am6
                                 ~~~
  W             Q            E   Q.
|--------|----------------------17-------------|
|--------|-------------------------------------|
|--------|-------------------------------------|
|--------|-------------------------------------|
|--------|-------------------------------------|
|--------|-------------------------------------|
|
|                                     |-3-|
| W        a   +S  S E a    +E   S  S S S S E
|--------|-----------5-------------------------|
|--------|---------5---8b10-(8)--8--5----------|
|--------|-7b9-(7)--------------------7-5---7--|
|--------|--------------------------------7----|
|--------|-------------------------------------|
|--------|-------------------------------------|


  Am7
  W           W
|-----------|------------------|
|-----------|------------------|
|-----------|------------------|
|-----------|------------------|
|-----------|------------------|
|-----------|------------------|
|
| ~~
| Q.   E Q    Q  E S S S S S S
|-----------|--------------5---|
|-----------|------------5---5-|
|-5---------|------5-7h8-------|
|-----------|------------------|
|-----------|------------------|
|-----------|------------------|


                                    Am6
                                            ~~~~
   a     +Q    E  +E        E   E    a     +H.
|---------------------------------|-15b17-(15)----||
|-15b17-(15)--15-(15)------13-----|---------------||
|------------------------------14-|---------------||
|---------------------------------|---------------||
|---------------------------------|---------------||
|---------------------------------|---------------||
|
|                                           ~~~~
|  a     +Q    E   E  a    +E   E    a     +H.
|--8b10--(8)---8---5--------------|---------------||
|---------------------8b10-(8)--8-|--8b10--(8)----||
|---------------------------------|---------------||
|---------------------------------|---------------||
|---------------------------------|---------------||
|---------------------------------|---------------||


 Pre-Chorus
  $
  F            Bm/F         F/A              G/B
  Gtr I
       PM--|                 ~~~
  Q  E E E E   E E E Q.      Q.    E  E  E    E  E  E  Q.
|-1--1-------|------------|----------------|-----------------|
|-1--1-------|---3---3----|-------10----10-|----12----12-----|
|-2--2-------|---4---4----|-------10----10-|----12----12-----|
|-3--3-------|-3---3------|----------------|-----------------|
|------------|------------|-12-------12----|-14----14--------|
|------1-1-1-|------------|----------------|-----------------|


  F              G/F          Esus4/A        E
                               ~~
  Q.   +E  E E   E E E Q.      E E E E E E   E Q  Q.
|-1----(1)-----|---3---3----|--------------|-0----------||
|-1----(1)-----|---3---3----|-10-----------|-9----------||
|-2----(2)-----|---4---4----|--9-----------|-9----------||
|-3----(3)-3-3-|-3---3------|--9-----------|-9----x\----||
|--------------|------------|----0-0-0-0-0-|-7----x\----||
|--------------|------------|--------------|-0----------||


 Chorus
  A5                   Am7                  Am6  Am+5
                               ~~           ~~
  Q.   +Q   E   +E  Q  E E E   Q.   E E E   Q.   E E E
|-------------|--------------|------------|-------------|
|-------------|------------5-|-8--------8p|=7----6-5----|
|-2----(2)--2-|-(2)-2----5---|--------5---|----------5--|
|-2----(2)--2-|-(2)-2--7-----|------7-----|-------------|
|-0----(0)--0-|-(0)-0--------|------------|-------------|
|-------------|--------------|------------|-------------|


  A5  A5               Am7                  Am6  Am+5
            PM|                ~~
                                                   |-3-|
  Q   E +E  E E   Q.   E E E   Q.   E E E   Q.   E S S S E
|---------------|------------|------------|----------------|
|---------------|----------5-|-8--------8p|=7----6-5h6p5---|
|-----2-(2)-----|-2------5---|--------5---|--------------5-|
|-7\--2-(2)-----|-2----7-----|------7-----|----------------|
|-----0-(0)-0-0-|-0----------|------------|----------------|
|---------------|------------|------------|----------------|


                                               To Coda
  A5  A5                Am7                  Am6  Am+5
                                ~~           ~~
  Q   E +E  E E   +Q.   E E E   Q.   E E E   Q.   E E E
|---------------|-------------|------------|-------------|
|---------------|-----------5-|-8--------8p|=7----6p5----|
|-----2-(2)---2-|-(2)-----5---|--------5---|----------5--|
|-7\--2-(2)---2-|-(2)---7-----|------7-----|-------------|
|-----0-(0)-0-0-|-(0)---------|------------|-------------|
|---------------|-------------|------------|-------------|


  A5
   E  a     +E   E  a     +E   E  a     +E
|-------------------------------------------|
|-10-12b14-(12)-10------------10------------|
|------------------12b14-(12)----12b14-(12)-|
|-------------------------------------------|
|-------------------------------------------|
|-------------------------------------------|


        Am7                  Am6  Am+5
                ~~           ~~
   Q.   E E E   Q.   E E E   Q.   E E E
|-------------|------------|------------|
|-----------5-|-8--------8p|=7----6-5---|
|-12------5---|--------5---|----------5-|
|-------7-----|------7-----|------------|
|-------------|------------|------------|
|-------------|------------|------------|


  1.
  Am7
      |--3--|                               |--3--|  |--3--|
   E  S  S  S  S  S  Q.      E  T  T  T  T  S  S  S  S  S  S  T  T  T  T  T  T  T  T
|----------12-17-12-17----|-12--------------------------------------------------------||
|-------14----------------|----15-13-12----------------------------------------------o||
|----14-------------------|-------------14-12-----------------------------------------||
|-------------------------|-------------------15-14-15-14-12-12-14-12-----------------||
|-12----------------------|-------------------------------------------15-14-15-14----o||
|-------------------------|-------------------------------------------------------15--||


  2.
   A5
   S S S S S S S S S S S S   S S S S S S S S S S S S
|--------------------------|----------------------------|
|--------------------------|----------------------------|
|--------------------------|---------------------2------|
|----------------------2---|---2-3---2-3-5-2h3-5---3----|
|----2-3---2-3-5-2-3h5---3-|-5-----4--------------------|
|--5-----5-----------------|----------------------------|


                                                      A5        Bb5
                                                      ~~
  S S S S S S S S S S S S   S S S S S S S S S S S S   H.        H.
|-------------------------|-------------------------|---------|-------||
|-------------------------|---5---------------------|---------|-------||
|-----4-----4-5---4-5-7-4-|-5---7-5p4---------------|---------|-------||
|-5-7---5-7-----7---------|-----------7-5-----------|---------|-8\----||
|-------------------------|---------------8-7-5-----|---------|-8\----||
|-------------------------|---------------------8-7-|-5-------|-6\----||


 Guitar Solo
  Bm
                                                T          T
   a      +Q    +E   +Q        +E     +S        S  S  +S   E  S       +S    E  E
|-12b14==(12)r=(12)-(12)b14===(12)-|-(12)pb14==15-12r(12)-17-12pb14==(12)r-10-12-|
|----------------------------------|---------------------------------------------|
|----------------------------------|---------------------------------------------|
|----------------------------------|---------------------------------------------|
|----------------------------------|---------------------------------------------|
|----------------------------------|---------------------------------------------|


                                ~~~~
   S  S  a     +E   a     +E   +Q.      +Q   S  a      +S   +Q    +S   S
|-13-12-10b12-(10)-10b12-(10)-(10)---|-(10)------------------------------|
|------------------------------------|---------14b16==(14)-(14)--(14)r14-|
|------------------------------------|-----------------------------------|
|------------------------------------|-----------------------------------|
|------------------------------------|-----------------------------------|
|------------------------------------|-------x---------------------------|


   |----------10:6------------|  |----------9:6----------|     |---4:3---|
   S  S  S  S  S  S  S  S  S  S  S  S  S  S  S  S  S  S  S    +E   E  E  E  a     +Q    S  S
|----------12-14-15-14-12----------------------------------|---------------------------10----|
|-12-14-15----------------15-14-12-------------------------|---------------12b14-(12)-----12-|
|----------------------------------15-14-12-11-------------|------------11-------------------|
|----------------------------------------------14-12-11----|------11-12----------------------|
|-------------------------------------------------------14-|-(14)----------------------------|
|----------------------------------------------------------|---------------------------------|


                       |------------11:6-------------|  |-3--|
   +Q.    +Q     E    +S   S  S  S  S S  S  S  S  S  S  S  S S  E T  T T T
|--------------/14-|-(14)-12-10----10-9---------------------------------------|
|-(12)---(12)------|------------14------12-10-12-10---------------------------|
|------------------|--------------------------------11-12-11-9----9-----------|
|------------------|-------------------------------------------12---12-9-8----|
|------------------|----------------------------------------------------------|
|------------------|----------------------------------------------------------|


            |-3-|   |----5-----|
  Q  S T  T S S S E T  T  T T  T    S  E.  +E  E  a     +Q
|--------------------------------|-------------9-------------|
|--------------------------------|----12--(12)---12b14-(12)--|
|---------------------------9-11-|-12------------------------|
|-9-------------8-9-9-11-12------|---------------------------|
|-----------7-9------------------|---------------------------|
|----7-9-10----------------------|---------------------------|


   Q.    S  S  S S  S S   S  S S  S S S  a     +Q.
|-----------------------|-----------------------------|
|-12----10--------------|-----------------------------|
|----------12-10-9------|-9---------------------------|
|------------------12-9-|---12-9------9---------------|
|-----------------------|--------12-9---12b14-(12)----|
|-----------------------|-----------------------------|


  |-----8:6-----| |-------11:6--------|
  S S S S S S S S S S S S S S S S S S S
|-----------2-3-5-----------------------|
|-2-3-2-3---------------5-5-2-3-5---2-3-|
|---------4-------4-4-2-----------4-----|
|---------------------------------------|
|---------------------------------------|
|---------------------------------------|


  |------9:6------| |------10:6-------|
  S S S S S S S S S S S S S S S S S S S
|---2-----2-3---2-3-5-2-3-5-7-5-3-2-5-3-|
|-5---3-5-----5-------------------------|
|---------------------------------------|
|---------------------------------------|
|---------------------------------------|
|---------------------------------------|


  |------10:6-------| |------10:6-------|
  S S S S S S S S S S S S S S S S S S S S   S S a   +S  T T a    +E  +Q.
|-2---3-2-----2-----------------2-7-2-----|---2----------------------------||
|---5-----5-3---5-3-2-5-3-2---3-------2-3-|-5---5b7-(5)-5-3-3b5==(3)-(3)---||
|---------------------------4-------------|--------------------------------||
|-----------------------------------------|--------------------------------||
|-----------------------------------------|--------------------------------||
|-----------------------------------------|--------------------------------||


  Dm
                     |------9:6------|
  E S S  S S +Q.     S S S S S S S S S a    +Q.
|------------------|------------------------------|
|------------------|------------------------------|
|---7---10-7-(7)---|-7---5------------------------|
|-7---7------------|---7---6-5-7-----5------------|
|------------------|-------------8-5---8b10-(8)---|
|------------------|------------------------------|


             ~~
       |-3-|
  +Q   S S S Q.     S S S S S S S S E T T T T
|-----------------|-------5---5---5-------------|
|-----------------|---9p8---6---5---------5-6---|
|-----------------|-----------------7-6h7-------|
|------6p5p3-5----|-----------------------------|
|-(8)-------------|-----------------------------|
|-----------------|-----------------------------|


    |-3-| |-3-| |------10:6-------|   |------9:6------| |------10:6-------|
  E S S S S S S S S S S S S S S S S   S S S S S S S S S S S S S S S S S S S
|-5-----5---------------------5-6-5-|---5-----------------------------------|
|---8-6---8-6-5-8-6-5---5-6h8-------|-----8-6-5-8-6-5---6-5-----5-----------|
|---------------------7-------------|-7---------------7-----7-5---7-5---7-5-|
|-----------------------------------|---------------------------------8-----|
|-----------------------------------|---------------------------------------|
|-----------------------------------|---------------------------------------|


                       \1
  |------9:6------|           |-----8:6-----|
  S S S S S S S S S a +Q.     S S S S S S S S Q.
|---------------------------|----------------------|
|---------------------------|----------------------|
|-----5---------------------|-------5--------------|
|-8-7---8-7-5-8-7-5---------|---5-----7-6p5---5----|
|-------------------8-(8)---|-8---8---------8------|
|---------------------------|----------------------|


                              ~~~
  |------10:6-------|
  S S S S S S S S S S Q.     +Q.   +E    E. S
|---------------------5----|-(5)---(5)---------|
|---------------5-6-8------|-------------------|
|-----------5-7------------|-------------------|
|-----5-7-8----------------|-------------------|
|-8-8----------------------|-----------/10--8--|
|--------------------------|-------------------|


            |3|                 |----9:6----|               |-4:3-|
   S S S  S E S  E E     +E    +E   E E S S S S S S S S S   E E E E S S S E.
|----------------------------|----------------------------|-------------------|
|-------------8h10p8b10==(8)r|=(8)----8-9p8p6---8-6-------|-------------6-----|
|-----------7----------------|-----10---------7-----------|-----------7---7---|
|----7-8-10------------------|----------------------8-7-6-|-5---5-6h7---------|
|-10-------------------------|----------------------------|---8---------------|
|----------------------------|----------------------------|-------------------|


                                                          D.S. al Coda
            ~~
                                                 |--3--|        |-3-|
  +E  S S E Q.     +E  S S S S S S T T T T S S   S  S  S Q  S S S S S E
|----------------|-----------------------------|------------------------||
|-----6p5--------|-----------------------------|------------------------||
|-(7)-----7-7----|-(7)-7-5-------7-------------|--------------5---------||
|----------------|---------7-6-7---7-5-----5---|----------------7-5-----||
|----------------|---------------------8-5---5-|-8-10-10-8----------8-5-||
|----------------|-----------------------------|------------------------||


 Chorus
  &
  A5                 Am7                  Am6  Am+5
               PM--|         ~~
  Q   E Q  E   E E E E E E   Q.   E E E   Q.   E E E
|------------|-------------|------------|-------------|
|------------|-----------5-|-8--------8p|=7----6p5----|
|-----2-2--2-|---------5---|--------5---|----------5--|
|-7\--2-2--2-|-2-----7-----|------7-----|-------------|
|-------0--0-|-0-0-0-------|------------|-------------|
|------------|-------------|------------|-------------|


  H=H
  Am7
                       |--5:6--|
  a a H    E S S   S S S S S S S  S  S S  S
|----------------:--------------------------:
|----------------:-----5---5-6-5-12-10-9-10-:
|-7p5p4----5-7-5-:-4-5---6------------------:
|----------------:--------------------------:
|----------------:--------------------------:
|----------------:--------------------------:


  S  S  S  S  S  S  S  S  S  S  S  S
|------------10-12-17-15-13-12--------|
|-9h10-12-13-------------------15-13--|
|-------------------------------------|
|-------------------------------------|
|-------------------------------------|
|-------------------------------------|


   S  S  S  S  S  S  S  S  S  S  S  S
|-------------------------------------:
|-12----------------------------------:
|----14-13----------------------------:
|----------15-14p12-------------------:
|-------------------15-14-12-11-------:
|-------------------------------13-12-:


                                  Am
   S  S E  E  E  E  E   Q  H      a H.
|---------------------:---------:---------*|
|---------------------:---------:---------*|
|---------------------:---------:---------*|
|------------------12s:=9s=5----:-5h7-----*|
|---------------10----:---------:---------*|
|-12-10-8-10s12-------:---------:---------*|


Duration Legend
---------------
W - whole; H - half; Q - quarter; E - 8th; S - 16th; T - 32nd; X - 64th; a - acciaccatura
+ - note tied to previous; . - note dotted; .. - note double dotted
Uncapitalized letters represent notes that are staccato (1/2 duration)
Irregular groupings are notated above the duration line
Duration letters will always appear directly above the note/fret number it represents the
duration for.  Duration letters with no fret number below them represent rests.  Multi-
bar rests are notated in the form Wxn, where n is the number of bars to rest for.  Low
melody durations appear below the staff

Tablature Legend
----------------
 h   - hammer-on
 p   - pull-off
 b   - bend
 pb  - pre-bend
 r   - bend release (if no number after the r, then release immediately)
 /\  - slide into or out of (from/to "nowhere")
 s   - legato slide
 S   - shift slide
  - natural harmonic
[n]  - artificial harmonic
n(n) - tapped harmonic
 ~   - vibrato
 tr  - trill
 T   - tap
 TP  - trem. picking
 PM  - palm muting
\n/  - tremolo bar dip; n = amount to dip
 \n  - tremolo bar down
 n/  - tremolo bar up
/n\  - tremolo bar inverted dip
 =   - hold bend; also acts as connecting device for hammers/pulls
 <>  - volume swell (louder/softer)
 x   - on rhythm slash represents muted slash
 o   - on rhythm slash represents single note slash

Misc Legend
-----------
 |  - bar
||  - double bar
||o - repeat start
o|| - repeat end
*|  - double bar (ending)
 :  - bar (freetime)
 $  - Segno
 &  - Coda
Tempo markers -  = BPM(8/16=s8/s16), where s8 = swing 8ths, s16 = swing 16ths


***************************************************************************************
* Generated using Power Tab Editor by Brad Larsen - http://powertab.guitarnetwork.org *
***************************************************************************************
comments
We did not receive enough feedback on this tab! Please rate:
print report bad tab
1 2 3 4 5
I want to post or [tab]
guest
You may want to rate the tab now too:
select rating
Please do not post tabs as comments. Select "correction" instead!