Oops, an error
Loading. Please wait.

Beethovens 5Th Symphony Tab

ver1
ver1

Whole song

Interactive

More versions @911Tabs.com
70,616 views 75 this week
no commentswrite comment
1 2 3 4 5
excellent!
x 12
Autoscroll
+/-
esc
set tempo
stop
Contributor
Hey! There's an official Ultimate Guitar app which is ideal
for learning songs when you're away from computer. Get the app
WARNING: You are trying to view
                                    content from Ultimate-Guitar.com
                                    in an unauthorized application,
                                    which is prohibited.

                                    Please use an official Ultimate
                                    Guitar Tabs application for iPhone,
                                    iPad or Android to access legitimate
                                    chords, guitar, bass, and drum tabs
                                    from Ultimate-Guitar.com database.

                                    Type "ultimate guitar tabs" in Apple
                                    App Store's or Android Market's
                                    search to find the application.
#----------------------------------PLEASE NOTE---------------------------------#
#This file is the author's own work and represents their interpretation of the #
#song. You may only use this file for private study, scholarship, or research. #
#------------------------------------------------------------------------------#

BEETHOVEN'S 5TH SYMPHONY
As recorded by Yngwie Malmsteen

Transcribed by Jorge Vega (Jorge22)
        



Gtr I (E A D G B E) - 'Untitled'
Gtr II (E A D G B E) - 'Untitled'

 Intro
  Q=160
 2/4
  Gtr I
  E E E E   H      +H       H      E E E E   H      +H       H
|---------|------|--------|------|---------|------|--------|-----|
|---------|------|--------|------|---------|------|--------|-----|
|---------|------|--------|------|---------|------|--------|-----|
|---4-4-4-|-0----|-(0)----|------|---------|------|--------|-----|
|---------|------|--------|------|---7-7-7-|-4----|-(4)----|-----|
|---------|------|--------|------|---------|------|--------|-----|


 Main Topic
    Gtr II
  E E E E   E E E E   E E E E   H      E E E E   E E E E   E E E E   H
|---------|---------|---------|------|---------|---------|---------|------|
|---------|---------|---------|------|---------|---------|---------|------|
|---------|---------|---7-7-7-|-4----|---------|---------|---9-9-9-|-6----|
|---4-4-4h|=5p4-4-4-|-4-------|------|---4-4-4h|=5p4-4-4-|-4-------|------|
|---------|---------|---------|------|---------|---------|---------|------|
|---------|---------|---------|------|---------|---------|---------|------|


  E  E  E E   H      E  E  E E   H      E  E  E E   E Q.     E Q.
|-----------|------|-----------|------|-----------|--------|---------|
|-----------|------|-----------|------|-----------|--------|---------|
|---11-11-9-|-7----|---11-11-9-|-7----|---11-11-9-|-7------|-4-------|
|-----------|------|-----------|------|---11-11-9-|-7------|-4-------|
|-----------|------|-----------|------|----9--9-7-|-5------|-2-------|
|-----------|------|-----------|------|-----------|--------|---------|


                                   Prelude
                                   1/4  2/4
                                           Gtr I
  H      +H       +H       +Q.  E   Q    E E E E   H
|------|--------|--------|--------|----|---------|------|
|------|--------|--------|--------|----|---------|------|
|------|--------|--------|--------|----|---------|------|
|-4----|-(4)----|-(4)----|-(4)----|----|---------|------|
|-4----|-(4)----|-(4)----|-(4)----|----|---------|------|
|-2----|-(2)----|-(2)----|-(2)----|----|---3-3-3-|-0----|


                 Breakdown
                    Gtr II
  +H       H      E  E  E  E   E  E  E  E   E  E  E  E   E E E E   E  E  E  E
|--------|------|------------|------------|------------|---------|-------------|
|--------|------|------------|------------|------------|---------|-------------|
|--------|------|---12-12-12-|-9----------|------------|---------|---12-12-12--|
|--------|------|------------|---11-11-11-|-8----------|---------|-------------|
|--------|------|------------|------------|---10-10-10-|-9-------|-------------|
|-(0)----|------|------------|------------|------------|---2-2-2-|-2-----------|


  E  E  E  E   E  E  E  E   E E  E E   E  E E E    H      E  E E  E    H
|------------|------------|----------|----------|-------|-----------|-------|
|------------|------------|----------|----------|-------|-----------|-------|
|-9----------|------------|----------|----------|-------|-----------|-------|
|---11-11-11-|-8----------|----------|----------|-------|------9-11-|-12----|
|------------|---10-10-10-|-9-7------|------7-9-|-10----|---10------|-------|
|------------|------------|-----10-9-|-7-10-----|-------|-----------|-------|


  E E E E   E E E E   E E E E   E E E E   E E E E   E E E E   E E E E
|---------|-------0-|-0-----2-|-2-0-0-3-|-3-2-2-5-|-5-3-3-7-|-7-6-6-7--|
|-------2-|-3-2-2---|---4-4---|---------|---------|---------|----------|
|-----4---|---------|---------|---------|---------|---------|----------|
|---4-----|---------|---------|---------|---------|---------|----------|
|---------|---------|---------|---------|---------|---------|----------|
|---------|---------|---------|---------|---------|---------|----------|


  H      +H       E  E E  E   E  E E  E   H      +H       +H       +Q.   E
|-7----|-(7)----|-9h10p9h10p|=9h10p9h10-|-9----|-(9)----|-(9)----|-(9)---7-|
|------|--------|-----------|-----------|------|--------|--------|---------|
|------|--------|-----------|-----------|------|--------|--------|---------|
|------|--------|-----------|-----------|------|--------|--------|---------|
|------|--------|-----------|-----------|------|--------|--------|---------|
|------|--------|-----------|-----------|------|--------|--------|---------|


  E E. S S S    E E. S S  S    E  E.  S  S  S
|-7-4----4-7-|-10-7----7-10-|-14-10-----10-14-|
|------5-----|-------8------|--------12-------|
|------------|--------------|-----------------|
|------------|--------------|-----------------|
|------------|--------------|-----------------|
|------------|--------------|-----------------|


   E  E.  S  S  S    H       +H       Q  Q
|-15-13-----13-15-|-19----|-(19)----|------|
|--------15-------|-------|---------|------|
|-----------------|-------|---------|------|
|-----------------|-------|---------|-7----|
|-----------------|-------|---------|-7----|
|-----------------|-------|---------|-5----|


 Interlude
  Gtr I
  E E E E   H      H      H       Q   Q    Q   Q     Q   Q     Q   Q
|---5-5-5-|------|-0----|------|-----10--|-9--10--|-12------|---------|
|---------|-3----|------|------|-10------|--------|-----12--|-12--10--|
|---------|------|------|-2----|---------|--------|---------|---------|
|---------|------|------|------|---------|--------|---------|---------|
|---------|------|------|------|---------|--------|---------|---------|
|---------|------|------|------|---------|--------|---------|---------|


  Q   Q    Q   Q    Q  Q    Q  Q     Q   Q    Q   Q     Q   Q     Q   Q
|----10--|----10--|----7--|-7--5--|-----10--|-9--10--|-12------|---------|
|--------|--------|-------|-------|-10------|--------|-----12--|-12--10--|
|--------|-6------|-9-----|-------|---------|--------|---------|---------|
|-7------|--------|-------|-------|---------|--------|---------|---------|
|--------|--------|-------|-------|---------|--------|---------|---------|
|--------|--------|-------|-------|---------|--------|---------|---------|


  Q  Q    Q  Q    Q  Q    Q  Q    Q   Q     Q   Q    Q   Q
|-5--7--|-8--7--|-5--7--|-5--3--|-8--10--|-12--10--|-8--10-|
|-------|-------|-------|-------|--------|---------|-------|
|-------|-------|-------|-------|--------|---------|-------|
|-------|-------|-------|-------|--------|---------|-------|
|-------|-------|-------|-------|--------|---------|-------|
|-------|-------|-------|-------|--------|---------|-------|


  Q  Q     Q   Q     Q   Q     Q   Q     Q   Q
|-8--7--|-10--12--|-13--12--|-10--12--|-13--12--|
|-------|---------|---------|---------|---------|
|-------|---------|---------|---------|---------|
|-------|---------|---------|---------|---------|
|-------|---------|---------|---------|---------|
|-------|---------|---------|---------|---------|


   Q   Q     Q   Q     Q   Q     Q   Q
|-10--12--|-13--12--|-10--12--|-13--12--|
|---------|---------|---------|---------|
|---------|---------|---------|---------|
|---------|---------|---------|---------|
|---------|---------|---------|---------|
|---------|---------|---------|---------|


           Guitar Break
            Gtr II
                             ~~~~~~~~~~~
   Q   Q     Q  Q    Q  Q    H      +H       E E E E   E E E E
|-10--12--|--------|-------|------|--------|---------|----------|
|---------|--------|-------|------|--------|---------|----------|
|---------|--------|----1--|-2----|-(2)----|---------|----------|
|---------|-/3--2--|-3-----|------|--------|-------2-|-4-----2--|
|---------|--------|-------|------|--------|-4-0-4---|---0-4----|
|---------|--------|-------|------|--------|---------|----------|


  E E E E   E E E E   H      E E E E   E E Q    +E  E E E   E T T T T E E
|---------|---------|------|---------|---0-5--|-(5)-7-5-3-|-3-5-3-2-0-0---|
|---------|---------|------|---------|-2------|-----------|-------------3-|
|---------|-0-----0-|-2----|-------2-|--------|-----------|---------------|
|-4---0-4-|-----0---|------|---0-4---|--------|-----------|---------------|
|---0-----|---2-----|------|-0-------|--------|-----------|---------------|
|---------|---------|------|---------|--------|-----------|---------------|


  E E E E   E E E E   E S S E E   E S S E E   E E E E    E  Q.
|---------|-0-------|-----------|-----------|---------|---------------|
|-3-2-0-2-|---3-----|-2-3-2-----|-----------|---------|---------------|
|---------|-----0---|-------0---|---0-------|---------|--7------------|
|---------|-------2-|---------2-|-2---2-0---|-7-7-7-7-|--7------------|
|---------|---------|-----------|---------2-|-7-7-7-7-|--5------------|
|---------|---------|-----------|-----------|-5-5-5-5-|---------------|
|
| Gtr I
| H         H         H           H           H          E  E   E  E
|---------|---------|-----------|-----------|---------|----14--14-14--|
|---------|---------|-----------|-----------|---------|-15------------|
|---------|---------|-----------|-----------|---------|---------------|
|---------|---------|-----------|-----------|---------|---------------|
|---------|---------|-----------|-----------|---------|---------------|
|---------|---------|-----------|-----------|---------|---------------|


   H             H             E E  E E
|-------------|-------------|-----------|
|-------------|-------------|-----------|
|-------------|-------------|-----------|
|-------------|-------------|----7--7-7-|
|-------------|-------------|----7--7-7-|
|-------------|-------------|----5--5-5-|
|
|  E  E  E  E    E  E  E  E    E Q.
|----17-17-17-|-14----------|-12--------|
|-15----------|----15-15-15-|-----------|
|-------------|-------------|-----------|
|-------------|-------------|-----------|
|-------------|-------------|-----------|
|-------------|-------------|-----------|


   E  Q.          H             H
|--------------|-------------|-------------|
|--------------|-------------|-------------|
|--7-----------|-------------|-------------|
|--7-----------|-------------|-------------|
|--5-----------|-------------|-------------|
|--------------|-------------|-------------|
|
|  E  E   E  E    E  E  E  E    E  E  E  E
|----14--14-14-|----17-17-17-|-14----------|
|-15-----------|-15----------|----15-15-15-|
|--------------|-------------|-------------|
|--------------|-------------|-------------|
|--------------|-------------|-------------|
|--------------|-------------|-------------|


   E  E  E  E    E Q.     E E E E   E  Q.     E E E E   E E E E   E E E E
|-------------|---------|---------|---------|---------|---7-7-7-|-7-7-7-7-|
|-------------|---------|---------|---------|---------|-0-------|---------|
|-------------|--7------|---7-7-7-|-7-------|---3-3-3-|---------|---------|
|-----7--7--7-|--7------|---7-7-7-|-7-------|---3-3-3-|---------|---------|
|-----7--7--7-|--5------|---5-5-5-|-5-------|---1-1-1-|---------|---------|
|-----5--5--5-|---------|---------|---------|---------|---------|---------|
|
|  E  E  E  E    E Q.     H         H         H         H         H
|----12-12-12-|-14------|---------|---------|---------|---------|---------|
|-------------|---------|---------|---------|---------|---------|---------|
|-14----------|---------|---------|---------|---------|---------|---------|
|-------------|---------|---------|---------|---------|---------|---------|
|-------------|---------|---------|---------|---------|---------|---------|
|-------------|---------|---------|---------|---------|---------|---------|


  E E E E   E E E E   E E E E   E E E E   E E E E   E E E E   E E E E
|---7-7-7-|-7-7-7-7-|---7-7-7-|-7-7-7-7-|---7-7-7-|-7-7-7-7-|---8-8-8--|
|---------|---------|---------|---------|---------|---------|----------|
|---------|---------|---------|---------|---------|---------|----------|
|---------|---------|---------|---------|---------|---------|----------|
|---------|---------|---------|---------|---------|---------|----------|
|---------|---------|---------|---------|---------|---------|----------|


  E E E E   E E E E   E E E E   E Q.     E E E E   H      +H
|-8-8-8-8-|---8-8-8-|-8-8-8-8-|-8------|---0-0-0-|-3----|-(3)----|
|---------|---------|---------|--------|---------|------|--------|
|---------|---------|---------|--------|---------|------|--------|
|---------|---------|---------|--------|---------|------|--------|
|---------|---------|---------|--------|---------|------|--------|
|---------|---------|---------|--------|---------|------|--------|


  TP      TP      TP      TP      TP
  H       H       H       H       H       +H        +H
|------|-------|-------|-10----|-13----|-(13)----|-(13)----|
|------|-------|-12----|-------|-------|---------|---------|
|-7----|-10----|-------|-------|-------|---------|---------|
|------|-------|-------|-------|-------|---------|---------|
|------|-------|-------|-------|-------|---------|---------|
|------|-------|-------|-------|-------|---------|---------|


 Bridge
  Gtr I                        Gtr II
  E E E E   +Q   Q    +H        E  E  E  E    E  E  E  E
|-2-2-2---|------0--|-(0)----|-------------|-15p14h15p14h|
|-------3-|-(3)-----|--------|-------14-15-|-------------|
|---------|---------|--------|-15-16-------|-------------|
|---------|---------|--------|-------------|-------------|
|---------|---------|--------|-------------|-------------|
|---------|---------|--------|-------------|-------------|


   E  E  E  E    E  E  E  E    E  E  E  E    E  E  E  E
|-15p14h15p14-|-------------|-15p14h15p14h|=15p14h15p14-|
|-------------|-------14-15-|-------------|-------------|
|-------------|-15-16-------|-------------|-------------|
|-------------|-------------|-------------|-------------|
|-------------|-------------|-------------|-------------|
|-------------|-------------|-------------|-------------|


   E  E  S  S  E    E  E  S  S  S  S    E  E  S  S  S  S
|-17-15-14-15----|-15-15----12-------|-12-12-------------|
|-------------17-|-------15----15-14-|-------14-15-14-12-|
|----------------|-------------------|-------------------|
|----------------|-------------------|-------------------|
|----------------|-------------------|-------------------|
|----------------|-------------------|-------------------|


   E  E  S S  S  S   E E S  S S S   E E S S S S
|-10-10----9-------|-9-9----------|-5-5----------|
|-------12---12-10-|-----8-10-8-7-|-----7-8-7-5--|
|------------------|--------------|--------------|
|------------------|--------------|--------------|
|------------------|--------------|--------------|
|------------------|--------------|--------------|


  E E S S T T T T   Q  Q    Q   Q     Q   Q
|-3-3-2-3-0-2-3-7-|-------|--------|---------|
|-----------------|-------|--------|---------|
|-----------------|-7--7--|-9--11--|-12--11--|
|-----------------|-------|--------|---------|
|-----------------|-------|--------|---------|
|-----------------|-------|--------|---------|


   Q   Q     Q   Q     Q   Q     Q   Q     Q   Q
|---------|---------|---------|---------|--------|
|---------|-----11--|-12--11--|-12--14--|-15--12-|
|-12--11--|-12------|---------|---------|--------|
|---------|---------|---------|---------|--------|
|---------|---------|---------|---------|--------|
|---------|---------|---------|---------|--------|


   Q   Q     Q   Q     Q   Q     Q   Q     Q   Q     Q   Q     Q   Q
|---------|-12------|-----12--|-14------|-12--14--|-15------|--------|
|-14--15--|-----14--|-15------|-----15--|---------|-----17--|--------|
|---------|---------|---------|---------|---------|---------|-11--13-|
|---------|---------|---------|---------|---------|---------|--------|
|---------|---------|---------|---------|---------|---------|--------|
|---------|---------|---------|---------|---------|---------|--------|


   Q   Q     Q   Q    Q  Q    Q  Q    Q   Q    Q  Q     Q   Q
|---------|---------|-7-----|-------|--------|-------|--------|
|---------|---------|----7--|-8-----|--------|-------|--------|
|-15------|-13--15--|-------|----7--|-9------|-7--9--|-11--10-|
|-----16--|---------|-------|-------|----11--|-------|--------|
|---------|---------|-------|-------|--------|-------|--------|
|---------|---------|-------|-------|--------|-------|--------|


                                                            Gtr I
   Q   Q     H       +H        +H        Q   Q     Q   Q     Q   Q     Q   Q
|---------|-------|---------|---------|-10--12--|-14--10--|-12--14--|-15--12--|
|-----11--|-12----|-(12)----|-(12)----|---------|---------|---------|---------|
|-11------|-------|---------|---------|---------|---------|---------|---------|
|---------|-------|---------|---------|---------|---------|---------|---------|
|---------|-------|---------|---------|---------|---------|---------|---------|
|---------|-------|---------|---------|---------|---------|---------|---------|


  Gtr II            Gtr I               Gtr II          Gtr I
  Q   Q     Q  Q     Q   Q     Q   Q    Q  Q    Q  Q    Q  Q    Q  Q
|-9--10--|-12--9--|-10--12--|-12--10--|-6--7--|-9--6--|----5--|-7--5--|
|--------|--------|---------|---------|-------|-------|-8-----|-------|
|--------|--------|---------|---------|-------|-------|-------|-------|
|--------|--------|---------|---------|-------|-------|-------|-------|
|--------|--------|---------|---------|-------|-------|-------|-------|
|--------|--------|---------|---------|-------|-------|-------|-------|


                                  Gtr II
  Q  Q    Q  Q    Q  Q    Q  Q    Q  Q    Q  Q    Q  Q     Q  Q
|-------|-------|-------|-0-----|-0-----|-------|-------|-10--9--|
|-8--7--|-5--3--|-------|----3--|----3--|-------|-------|--------|
|-------|-------|-------|-------|-------|-4-----|-------|--------|
|-------|-------|-2--0--|-------|-------|-4-----|-4-----|--------|
|-------|-------|-------|-------|-------|-2-----|-4-----|--------|
|-------|-------|-------|-------|-------|-------|-2-----|--------|


  Q  Q    Q  Q    H      Q  Q    Q  Q     H      H       E  E  E  E
|-7--5--|-------|------|-3--2--|-0-----|-10----|-9----|-21-22-21-22-|
|-------|-8--7--|------|-------|----3--|-------|------|-------------|
|-------|-------|------|-------|-------|-------|------|-------------|
|-------|-------|------|-------|-------|-------|------|-------------|
|-------|-------|------|-------|-------|-------|------|-------------|
|-------|-------|------|-------|-------|-------|------|-------------|


   E  E  E  E    E  E  E  E    E  E  E  E
|-21-22-21-22-|-21-22-21-22-|-21-22-21-22-|
|-------------|-------------|-------------|
|-------------|-------------|-------------|
|-------------|-------------|-------------|
|-------------|-------------|-------------|
|-------------|-------------|-------------|


   Q      Q    Q   Q      Q E E   Q  Q   E E E E
|-22b24--21-|-22--22b24-|---6-7-|-6----|---------|
|-----------|-----------|-7-----|----8-|-7-7-7-7-|
|-----------|-----------|-------|------|---------|
|-----------|-----------|-------|------|---------|
|-----------|-----------|-------|------|---------|
|-----------|-----------|-------|------|---------|


           Outro
  E E E E   H      +H       +H       E E E E   H      +H       +H
|---------|------|--------|--------|---0-0-0-|------|--------|--------|
|-7-7-7-7-|------|--------|--------|---------|-2----|-(2)----|-(2)----|
|---------|-7----|-(7)----|-(7)----|---------|------|--------|--------|
|---------|------|--------|--------|---------|------|--------|--------|
|---------|------|--------|--------|---------|------|--------|--------|
|---------|------|--------|--------|---------|------|--------|--------|


  Q  E E   H      +H       +H       Q  E E   H      +H       +H
|----2-2-|------|--------|--------|----2-2-|------|--------|--------|
|--------|-3----|-(3)----|-(3)----|--------|-3----|-(3)----|-(3)----|
|--------|------|--------|--------|--------|------|--------|--------|
|--------|------|--------|--------|--------|------|--------|--------|
|--------|------|--------|--------|--------|------|--------|--------|
|--------|------|--------|--------|--------|------|--------|--------|


  E E E E   Q  Q    E E E E   Q  Q    E E E E   E E E E   E E E E
|---------|-------|---------|-------|---------|---------|----------|
|---------|-------|---------|-------|---------|---------|----------|
|---------|-4-----|---------|-4-----|---------|-4---3---|-4---3----|
|---4-4-4-|-4-----|---4-4-4-|-4-----|---4-4-4-|-4---3---|-4---3----|
|---4-4-4-|-2-----|---4-4-4-|-2-----|---4-4-4-|-2---1---|-2---1----|
|---2-2-2-|-------|---2-2-2-|-------|---2-2-2-|---------|----------|


  E E E E   E E E E   Q  Q    H      Q  Q
|---------|---------|-------|------|-------*|
|---------|---------|-------|------|-------*|
|-4---3---|-4---3---|-4-----|-3----|-4-----*|
|-4---3---|-4---3---|-4-----|-3----|-4-----*|
|-2---1---|-2---1---|-2-----|-1----|-2-----*|
|---------|---------|-------|------|-------*|



Duration Legend
---------------
W - whole; H - half; Q - quarter; E - 8th; S - 16th; T - 32nd; X - 64th; a - acciaccatura
+ - note tied to previous; . - note dotted; .. - note double dotted
Uncapitalized letters represent notes that are staccato (1/2 duration)
Irregular groupings are notated above the duration line
Duration letters will always appear directly above the note/fret number it represents the
duration for.  Duration letters with no fret number below them represent rests.  Multi-
bar rests are notated in the form Wxn, where n is the number of bars to rest for.  Low
melody durations appear below the staff

Tablature Legend
----------------
 h   - hammer-on
 p   - pull-off
 b   - bend
 pb  - pre-bend
 r   - bend release (if no number after the r, then release immediately)
 /\  - slide into or out of (from/to "nowhere")
 s   - legato slide
 S   - shift slide
 - natural harmonic
[n]  - artificial harmonic
n(n) - tapped harmonic
 ~   - vibrato
 tr  - trill
 T   - tap
 TP  - trem. picking
 PM  - palm muting
\n/  - tremolo bar dip; n = amount to dip
 \n  - tremolo bar down
 n/  - tremolo bar up
/n\  - tremolo bar inverted dip
 =   - hold bend; also acts as connecting device for hammers/pulls
 <> - volume swell (louder/softer)
 x   - on rhythm slash represents muted slash
 o   - on rhythm slash represents single note slash

Misc Legend
-----------
 |  - bar
||  - double bar
||o - repeat start
o|| - repeat end
*|  - double bar (ending)
 :  - bar (freetime)
 $  - Segno
 &  - Coda
Tempo markers -  = BPM(8/16=s8/s16), where s8 = swing 8ths, s16 = swing 16ths

comments
print report bad tab
I want to post or [tab]
guest
You may want to rate the tab now too:
select rating
Please do not post tabs as comments. Select "correction" instead!