Oops, an error
Loading. Please wait.

Paganinis Fifth Caprice In A Minor Tab

25,693 views 39 this week
4 commentsread comments
1 2 3 4 5
excellent!
x 10
Autoscroll
+/-
esc
set tempo
stop
Contributor
Hey! There's an official Ultimate Guitar app which is ideal
for learning songs when you're away from computer. Get the app
WARNING: You are trying to view
                                    content from Ultimate-Guitar.com
                                    in an unauthorized application,
                                    which is prohibited.

                                    Please use an official Ultimate
                                    Guitar Tabs application for iPhone,
                                    iPad or Android to access legitimate
                                    chords, guitar, bass, and drum tabs
                                    from Ultimate-Guitar.com database.

                                    Type "ultimate guitar tabs" in Apple
                                    App Store's or Android Market's
                                    search to find the application.
Yngwie Malmsteen
Paganini's Fifth Caprice In A Minor
Standard Tuning

Fast=168

|---------------------------------|
|---------------------------------|  X2
|---------------------------------|
|-------------------7-5-3---------|
|---3-7-3---5-7-5-3-------7-5-----|
|-5-------7-------------------8-7-|

|-------------------------------------------------|
|-------------------------------------------------|
|-------------------------------------------------|
|---------------------------------------------7---|
|---4-7-4---5-8-5-----8-------7-------8-5-------6-|
|-5-------5-------3-7---7-3-8---8-4-7-----8-5-----|

|--------------10-12-----------------------------------|
|---------9-12-------------------------10-8-6----------|  X2
|-------9--------------5-9-5---7-9-7-5--------9-7------|
|---6-9--------------7-------9--------------------10-9-|
|-7----------------------------------------------------|
|------------------------------------------------------|

|-----------------------7-5-------------------------|
|---------10-8--------------8-6---------------------|
|---6-9-6------10-9-6-7---------9-7-5/4-------------|
|-7-------------------------------------7-5-4-5-7-3-|
|---------------------------------------------------|
|---------------------------------------------------|

|-------------------------------------------------|
|-------------------------------------------------|
|-----5-------4-------2-------0-------------------|
|---5-------3-------2-------0---------3-------3---|
|-7-----7-5-----5-3-----3-2-----2---3-------3-----|
|---------------------------------5-----5-4-----4-|

|-------------------------------------------------|
|-----------------------3-------5-------6---------|
|---------------5-----4-------5-------5-----8-5---|
|-----3-----2-5-----3-------5-------7-----4-----7-|
|---2---2-3-------5-------7-------8---------------|
|-3-----------------------------------------------|

|-------------------8-7-5-----------7-5-3---------|
|---8-5-----6-------------8-6-----6-------7-5-4-0-|
|-0-----5-0---7-4-5-----------9-5-----------------|
|-------------------------------------------------|
|-------------------------------------------------|
|-------------------------------------------------|

|---5-3-1-----------3-1-0-------------------------|
|-5-------5-3-----3-------3-1-------6-5-3---------|
|-------------6-2-------------4-0-5-------5-4-----|
|---------------------------------------------7-5-|
|-------------------------------------------------|
|-------------------------------------------------|

|-----------5-8---8-3-------------7-3-------------|
|---------7-----7-----5---------------------------|
|-----5-8---------------5-------------7-4---------|
|-4-7---------------------5-2-------------5-0-----|
|-----------------------------3---------------2---|
|-------------------------------3---------------3-|

|---8-7-6-5-4-3-2---------------------------------|
|-----------------6-5-4-3-------------------------|
|-------------------------6-5-4-3-----------------|
|---------------------------------7-6-5-4---------|
|-3---------------------------------------8-7-6-5-|
|-------------------------------------------------|

|---------------------------------|
|---------------------------------|  Repeat Just This
|---------------------------------|
|-----7-5---5-3-0-----------5-3-0-|
|-3-7-----2-------3-7---7-2-------|
|---------------------3-----------|

|---------------------------------|
|---------------------------------|
|---------------------------------|
|-----------3---------------------|
|-3-7-5-3-2---5-2-0-3-2-0---5-2---|
|-------------------------4-----4-|

|-------------------------------------------------|
|-----------------------------------6-------5-----|
|-------------------------------------5-------6---|
|---5-2-----5-2-------------------------7-5-----5-|
|-3-----3-1-----1-0-8-3-0---7-2-------------------|
|-------------------------3-----3-5---------------|

|-------------------------------------------------|
|-------------------------------------------------|
|---7-------6-------7-------5---------------------|
|-----7-------5-------7-------7-----8-------7-----|
|-8-----8-7-----7-8-----8-6-----6-5---8-5-----6---|
|-----------------------------------------8-----8-|

|-------------------------------------------------------------------------|
|----11----------10-------------------------------------------------------|
|-------10----------11-------12----------11----------12----------10-------|
|----------12-10-------10-------12----------10----------12----------12----|
|-------------------------13-------13-12-------12-13-------13-11-------11-|
|-10----------------------------------------------------------------------|

|----------------------------11----------10-------------------------------|
|-------------------------------11----------12-------13----------12-------|
|----------------------------------12-10-------10-------12----------10----|
|----13----------12-------------------------------13-------13-12-------12-|
|-10----13-10-------11----10----------------------------------------------|
|-------------13-------13-------------------------------------------------|

|------------------------------------------------------------|
|----13-12-11------------------------------------------------|
|-------------14-13-12-11-10-9-8-7---------------------------|
|-10-------------------------------11-10-9-8-7-6-5-4---------|
|----------------------------------------------------8-7-6-5-|
|------------------------------------------------------------|

|-------------------4-3-2-------------------------|
|-------------------------6-5-4-3-----------------|
|---------------------------------6-5-4-4---------|
|-----6-5---5-----------------------------7-6-5-4-|
|---6---------8-5-3-------------------------------|
|-8-------7---------------------------------------|

|-------------------------------------------------|
|-------------------------------------------------|
|-----------------------------------1-------------|
|-3-2-1-0-------------3-1---1---------1-----4-1---|
|---------4-3-2-1---3---------4-1-------3-0-----3-|
|-----------------4-------3-------4---------------|

|-----------------------------------------------6-|
|-------------------------------------------5-----|
|---3-------1-------5-------3-----------5-----5---|
|-----3-------3-0-----5-------5-----5-2---5-------|
|-1-----4-2-------3-----6-4-----4-----------------|
|---------------------------------6---------------|

|-4-1---------------------------------------------|
|-------------------------------------------4-8-4-|
|-----5-1-----1---------------6-----------7-------|
|---------2-3---3---------7-8---8-6-5-------------|
|-----------------6-4-----------------8-6---------|
|---------------------8-6-------------------------|

|-------------------------------------------------|
|-9-5---------------------------------------------|
|-----5-----------------------------6-5-3---------|
|-------6-5-6-4-----3-6-3---4-6-4-3-------6-4-----|
|---------------6-4-------6-------------------8-6-|
|-------------------------------------------------|

|-------------------------------------------------|
|-------------------------------------------------|
|-------------4-------4---------------------------|
|---3-6-3---6---6---6---6---4-8-4---5-8-5---6-8-6-|
|-4-------4-------5-------6-------6-------8-------|
|-------------------------------------------------|

|---------------------------------------------------|
|---------------------------------------------------|
|---8-7-5----------------------6-------6------------|
|-5-------8-6--------5-8-5---8---8---8---8---6-10-6-|
|-------------10-8-6-------6-------7-------8--------|
|---------------------------------------------------|

|----------------------------------------------------------|
|----------------------------------------------------------|
|---8--------10---------10---------11-8-----9--------------|
|-----10--------11-8-------12-----------8-----11-8---------|
|-9------9-8---------11-------11\9--------9--------9-7-----|
|------------------------------------------------------9-6-|

|--------------7-11-----------------------------4-7-|
|---------------------------------------------------|
|---------8-11--------6---------------------4-8-----|
|-------9---------------8-5---------------6---------|
|---6-9-------------6-------6-4-------2-6-----------|
|-7-----------------------------6-3-4---------------|

|---------------------------------------------------|
|---------------------------------------------------|
|-------------------4-9-4---5-9-5---6-11-6---8-11-8-|
|---6-9-6---7-9-7-6-------7-------8--------9--------|
|-7-------9-----------------------------------------|
|---------------------------------------------------|

|---------------------------------------------------------------------|
|---------------------------------------------------------------------|
|----8-13-8----9-15-9----11-16-11----13-16-13----12-15-12----11-16-11-|
|-10--------11--------13----------14----------14----------13----------|
|---------------------------------------------------------------------|
|---------------------------------------------------------------------|

|-----------------------------------------------------------|
|-----------------------------------------------------------|
|----10-13-10----9-14-9----8-11-8---7-12-7---6-9-6---5-10-5-|
|-12----------11--------10--------9--------8-------7--------|
|-----------------------------------------------------------|
|-----------------------------------------------------------|

|------------------------------------------------------------|
|------------------------------------------------------------|
|------------------------------------------------------------|
|----10-13-10----9-14-9----8-11-8---7-12-7---7-12-7---7-13-7-|
|-12----------11--------10--------9--------8--------8--------|
|------------------------------------------------------------|

|-----------------12-16-------------------------------------------12-16-|
|-----------------------------------------------------12-17-------------|
|-----------13-16----------14-19-14----14-20-14-------------13-16-------|
|------9-14-------------15----------15----------14-18-------------------|
|-7-11------------------------------------------------------------------|
|-----------------------------------------------------------------------|

|----------------------------17-15-13-------------------------------------|
|----13-17-13----15-17-15-13----------17-15----------13-17-13----15-17-15-|
|-14----------16----------------------------17-16-14----------16----------|
|-------------------------------------------------------------------------|
|-------------------------------------------------------------------------|
|-------------------------------------------------------------------------|

|----17-15-13----------------15-13-12----------------13-12-10-------------|
|-13----------17-15-------15----------15-13-------13----------13-12-------|
|-------------------18-14-------------------16-12-------------------14-10-|
|-------------------------------------------------------------------------|
|-------------------------------------------------------------------------|
|-------------------------------------------------------------------------|

|----12-10-8---------------10-8-7-------------8--------------|
|-12---------12-10------10--------10-8----------10-7---------|
|------------------13-9----------------10-9-8--------8-5-----|
|--------------------------------------------------------7---|
|----------------------------------------------------------6-|
|------------------------------------------------------------|

|-8-5-------------7-4---------------5-4-3---------|
|-----------------------------------------7-6-5-4-|
|-----9-5-------------7-4-------------------------|
|---------7-2-------------6-0---------------------|
|-------------3-0---------------------------------|
|-----------------------------7-4-5---------------|

|-------------------------------------------------|
|-------------------------------------------------|
|-7-6-5-4-----------------------------------------|
|---------8-7-6-5-4-3-2-1-------------3-2---2-----|
|-------------------------5-4-3-2---3---------5-2-|
|---------------------------------5-------4-------|

|-----------------|
|-----------------|  Repeat just this X4
|-----------------|
|-----------2-----|
|---3-2-5-3-----2-|
|-5-----------4---|

|------------------------9-12-|
|-----------------------------|
|-------------------9-14------|
|--------------7-11-----------|
|-0~-------4-7----------------|
|-----------------------------|

End with this chord w/ pick and fingers

|-----17~~~~------|
|-----14~~~~------|
|-----------------|
|-----14~~~~------|
|-----------------|
|-----------------|

Good Luck!!!
comments
print report bad tab
4 comments total. Showing first comments.
0 reply
penguinsRULE wrote on August 16 2005, 12:00 am

does anyone know where i can download a file of the whole song?

0 reply
Adam Musial wrote on September 26 2006, 12:25 am

ares

0 reply
sTx wrote on February 15 2008, 02:39 pm

Lovely tab!

I want to post or [tab]
guest
You may want to rate the tab now too:
select rating
Please do not post tabs as comments. Select "correction" instead!