Oops, an error
Loading. Please wait.

Fresh Start Fever Bass Tab

1,598 views 18 this week
no commentswrite comment
1 2 3 4 5
accurate
x 4
add to favorites launch autoscroll
font size
0
reset
Autoscroll
+/-
esc
set tempo
stop
Contributor
Difficulty
Tuning
intermediate
D A D G B E
WARNING: You are trying to view
                                    content from Ultimate-Guitar.com
                                    in an unauthorized application,
                                    which is prohibited.

                                    Please use an official Ultimate
                                    Guitar Tabs application for iPhone,
                                    iPad or Android to access legitimate
                                    chords, guitar, bass, and drum tabs
                                    from Ultimate-Guitar.com database.

                                    Type "ultimate guitar tabs" in Apple
                                    App Store's or Android Market's
                                    search to find the application.
0:51 Chorus
G|-----------------------------------------------------------------|
D|-----------------------------------------------------------------|
A|-3---3---3---3-----------------------------------1---1---1-1-1-1-|
D|-----------------6---6---6---6---3---3---3---3-------------------|
   1 + 2 + 3 + 4 + 1 + 2 + 3 + 4 + 1 + 2 + 3 + 4 + 1 + 2 + 3 + 4 +

G|-----------------------------------------------------------------|
D|-----------------------------------------------------------------|
A|-3---3---3---3---------------------------------------------------|
D|-----------------6---6---6---6---3---3---3---3---3---3---3---3---|
   1 + 2 + 3 + 4 + 1 + 2 + 3 + 4 + 1 + 2 + 3 + 4 + 1 + 2 + 3 + 4 +

1:03
G|---------------------------------|
D|---------------------------------|
A|-3-------------------------------|
D|---------------------------------|
   1 + 2 + 3 + 4 + 1 + 2 + 3 + 4 +

Verse 1:06
G|-----------------------------------------------------------------|
D|-----------------------------------------------------------------|
A|-----------------------------------------------------------------|
D|-----------------------------------------------------------------|
   1 + 2 + 3 + 4 + 1 + 2 + 3 + 4 + 1 + 2 + 3 + 4 + 1 + 2 + 3 + 4 +

G|-----------------------------------------------------------------|
D|---------------------------------------------------------6-5-3---|
A|---------------------------------------------------------------6-|
D|-----------------------------------------------------------------|
   1 + 2 + 3 + 4 + 1 + 2 + 3 + 4 + 1 + 2 + 3 + 4 + 1 + 2 + 3 + 4 +

1:20 
G|-----------------------------------------------------------------|
D|---------------------------------------------------------3-5-3-5-|
A|-3-3-3-3-6-6-6-6-6-6-6-6-6-6-6-6-3-3-3-3-6-6-6-6-6-6-6-6---------|
D|-----------------------------------------------------------------|
   1 + 2 + 3 + 4 + 1 + 2 + 3 + 4 + 1 + 2 + 3 + 4 + 1 + 2 + 3 + 4 +

G|-----------------------------------------------------------------|
D|---------------------------------------------------------6-5-3---|
A|-2-2-2-2-5-5-5-5-5-5-5-5-5-5-5-5-2-2-2-2-5-5-5-5-5-5-5-5-------6-|
D|-----------------------------------------------------------------|
   1 + 2 + 3 + 4 + 1 + 2 + 3 + 4 + 1 + 2 + 3 + 4 + 1 + 2 + 3 + 4 + 

1:32 Pre-Chorus
G|-----------------------------------------------------------------|
D|-----------------------------------------------------------------|
A|-3---------------------------------------------------------------|
D|-----------------------------------------------------------------|
   1 + 2 + 3 + 4 + 1 + 2 + 3 + 4 + 1 + 2 + 3 + 4 + 1 + 2 + 3 + 4 +

G|-----------------------------------------------------------------|
D|-----------------------------------------------------------------|
A|-------------------------------------------------1---------------|
D|-----------------------------------------------------------------|
   1 + 2 + 3 + 4 + 1 + 2 + 3 + 4 + 1 + 2 + 3 + 4 + 1 + 2 + 3 + 4 +

1:44 Chorus
G|-----------------------------------------------------------------|
D|-----------------------------------------------------------------|
A|-3---3---3---3-----------------------------------1---1---1-1-1-1-|
D|-----------------6---6---6---6---3---3---3---3-------------------|
   1 + 2 + 3 + 4 + 1 + 2 + 3 + 4 + 1 + 2 + 3 + 4 + 1 + 2 + 3 + 4 +

G|-----------------------------------------------------------------|
D|-----------------------------------------------------------------|
A|-3---3---3---3---------------------------------------------------|
D|-----------------6---6---6---6---3---3---3---3---3---3---3---3---|
   1 + 2 + 3 + 4 + 1 + 2 + 3 + 4 + 1 + 2 + 3 + 4 + 1 + 2 + 3 + 4 +

G|-----------------------------------------------------------------|
D|-----------------------------------------------------------------|
A|-3---3---3---3-----------------------------------1---1---1-1-1-1-|
D|-----------------6---6---6---6---3---3---3---3-------------------|
   1 + 2 + 3 + 4 + 1 + 2 + 3 + 4 + 1 + 2 + 3 + 4 + 1 + 2 + 3 + 4 +

G|-----------------------------------------------------------------|
D|-----------------------------------------------------------------|
A|-3---3---3---3-----------------------------------1---1---1-1-1-1-|
D|-----------------6---6---6---6---3---3---3---3-------------------|
   1 + 2 + 3 + 4 + 1 + 2 + 3 + 4 + 1 + 2 + 3 + 4 + 1 + 2 + 3 + 4 +

2:09
G|-----------------|
D|-----------------|
A|-3---------------|
D|-----------------|
   1 + 2 + 3 + 4 +

2:22 
G|-----------------------------------------------------------------|
D|-----------------------------------------------------------------|
A|-3---3-------3---------------------------------------------------|
D|---------------------------------0---0-------0-------------------|
   1 + 2 + 3 + 4 + 1 + 2 + 3 + 4 + 1 + 2 + 3 + 4 + 1 + 2 + 3 + 4 +

G|-----------------------------------------------------------------|
D|-----------------------------------------------------------------|
A|-----------------------------------------------------------------|
D|-1---1-------1-------------------3---3-------3-------------------|
   1 + 2 + 3 + 4 + 1 + 2 + 3 + 4 + 1 + 2 + 3 + 4 + 1 + 2 + 3 + 4 +

G|-----------------------------------------------------------------|
D|-----------------------------------------------------------------|
A|-3---3-------3-----------3---3-----------------------------------|
D|---------------------------------0---0-------0-----------0---0---|
   1 + 2 + 3 + 4 + 1 + 2 + 3 + 4 + 1 + 2 + 3 + 4 + 1 + 2 + 3 + 4 +

G|-----------------------------------------------------------------|
D|-----------------------------------------------------------------|
A|-----------------------------------------------------------------|
D|-1---1-------1-----------1---1---3---3-------3-----------3---3---|
   1 + 2 + 3 + 4 + 1 + 2 + 3 + 4 + 1 + 2 + 3 + 4 + 1 + 2 + 3 + 4 +

G|-----------------------------------------------------------------|
D|-----------------------------------------------------------------|
A|-3---3---3---3---3---3---3---3-----------------------------------|
D|---------------------------------0---0---0---0---0---0---0---0---|
   1 + 2 + 3 + 4 + 1 + 2 + 3 + 4 + 1 + 2 + 3 + 4 + 1 + 2 + 3 + 4 +

G|-----------------------------------------------------------------|
D|-----------------------------------------------------------------|
A|-----------------------------------------------------------------|
D|-1---1---1---1---1----1--1---1---3---3---3---3---3---3---3---3---|
   1 + 2 + 3 + 4 + 1 + 2 + 3 + 4 + 1 + 2 + 3 + 4 + 1 + 2 + 3 + 4 +

3:03 Chorus
G|-----------------------------------------------------------------|
D|-----------------------------------------------------------------|
A|-3---3---3---3-----------------------------------1---1---1-1-1-1-|
D|-----------------6---6---6---6---3---3---3---3-------------------|
   1 + 2 + 3 + 4 + 1 + 2 + 3 + 4 + 1 + 2 + 3 + 4 + 1 + 2 + 3 + 4 +

G|-----------------------------------------------------------------|
D|-----------------------------------------------------------------|
A|-3---3---3---3---------------------------------------------------|
D|-----------------6---6---6---6---3---3---3---3---3---3---3---3---|
   1 + 2 + 3 + 4 + 1 + 2 + 3 + 4 + 1 + 2 + 3 + 4 + 1 + 2 + 3 + 4 +

G|-----------------------------------------------------------------|
D|-----------------------------------------------------------------|
A|-3---3---3---3-----------------------------------1---1---1-1-1-1-|
D|-----------------6---6---6---6---3---3---3---3-------------------|
   1 + 2 + 3 + 4 + 1 + 2 + 3 + 4 + 1 + 2 + 3 + 4 + 1 + 2 + 3 + 4 +

G|-----------------------------------------------------------------|
D|-----------------------------------------------------------------|
A|-3---3---3---3-----------------------------------1---1---1-1-1-1-|
D|-----------------6---6---6---6---3---3---3---3-------------------|
   1 + 2 + 3 + 4 + 1 + 2 + 3 + 4 + 1 + 2 + 3 + 4 + 1 + 2 + 3 + 4 +

3:28 Outro
G|---------------------------------|
D|---------------------------------|
A|-3---3-------3-----------3---3---|
D|---------------------------------|
   1 + 2 + 3 + 4 + 1 + 2 + 3 + 4 +

Tabbed by Jack Mills
comments
print report bad tab
I want to post or [tab]
guest
You may want to rate the tab now too:
select rating
Please do not post tabs as comments. Select "correction" instead!