Oops, an error
Loading. Please wait.

Jealous Minds Think Alike Tab

ver3
ver3

Whole song

Interactive

More versions @911Tabs.com
2,291 views 3 this week
1 commentread comment
1 2 3 4 5
accurate
x 3
Autoscroll
+/-
esc
set tempo
stop
Contributor
WARNING: You are trying to view
                                    content from Ultimate-Guitar.com
                                    in an unauthorized application,
                                    which is prohibited.

                                    Please use an official Ultimate
                                    Guitar Tabs application for iPhone,
                                    iPad or Android to access legitimate
                                    chords, guitar, bass, and drum tabs
                                    from Ultimate-Guitar.com database.

                                    Type "ultimate guitar tabs" in Apple
                                    App Store's or Android Market's
                                    search to find the application.
                          JEALOUS MINDS THINK ALIKE
                                 youmeatsix


Tabbed by:jealous_minds
Email:reece.goddard@hotmail.com

Tuning:DADGBe  (Drop D)

*note: in this tab guitar 1 is on top and guitar 2 on the bottom.*
*----\

 ----/
denotes two parts played together*
INTRO  
Guitar 1         1                  2                 3                 4
e|-----------------|-----------------|-----------------|-----------------|
B|-----------------|-----------------|-----------------|-----------------|
G|-----------------|-----------------|-----------------|-----------------|
D|-9-9-9-9-9-9-9-9-|-4-4-4-4-4-4-4-4-|-5-5-5-5-5-5-5-5-|-7-7-7-7-7-7-7-7-|
A|-9-9-9-9-9-9-9-9-|-4-4-4-4-4-4-4-4-|-5-5-5-5-5-5-5-5-|-7-7-7-7-7-7-7-7-|----\
D|-9-9-9-9-9-9-9-9-|-4-4-4-4-4-4-4-4-|-5-5-5-5-5-5-5-5-|-7-7-7-7-7-7-7-7-|
Guitar 2                                                                        
e|-----------------|-----------------|-----------------|-----------------|
B|-----------------|-----------------|-----------------|-----------------|----/
G|-----------------|-----------------|-----------------|-----------------|
D|-9-9-9-9-9-9-9-9-|-4-4-4-4-4-4-4-4-|-2-2-2-2-2-2-2-2-|-0-0-0-0-0-0-0-0-|
A|-9-9-9-9-9-9-9-9-|-4-4-4-4-4-4-4-4-|-2-2-2-2-2-2-2-2-|-0-0-0-0-0-0-0-0-|
D|-9-9-9-9-9-9-9-9-|-4-4-4-4-4-4-4-4-|-2-2-2-2-2-2-2-2-|-0-0-0-0-0-0-0-0-|
                  5                 6                 7                 8
Guitar 1
e|-----------------|-----------------|-----------------|-----------------|
B|-----------------|-----------------|-----------------|-----------------|
G|-----------------|-----------------|-----------------|-----------------|
D|-9-9-9-9-9-9-9-9-|-4-4-4-4-4-4-4-4-|-5-5-5-5-5-5-5-5-|-7-7-7-7-7-7-7-7-|
A|-9-9-9-9-9-9-9-9-|-4-4-4-4-4-4-4-4-|-5-5-5-5-5-5-5-5-|-7-7-7-7-7-7-7-7-|----\
D|-9-9-9-9-9-9-9-9-|-4-4-4-4-4-4-4-4-|-5-5-5-5-5-5-5-5-|-7-7-7-7-7-7-7-7-|
Guitar 2                                                                        
e|-----------------|-----------------|-----------------|-----------------|
B|-----------------|-----------------|-----------------|-----------------|----/
G|-----------------|-----------------|-----------------|-----------------|
D|-9-9-9-9-9-9-9-9-|-4-4-4-4-4-4-4-4-|-2-2-2-2-2-2-2-2-|-0-0-0-0-0-0-0-0-|
A|-9-9-9-9-9-9-9-9-|-4-4-4-4-4-4-4-4-|-2-2-2-2-2-2-2-2-|-0-0-0-0-0-0-0-0-|
D|-9-9-9-9-9-9-9-9-|-4-4-4-4-4-4-4-4-|-2-2-2-2-2-2-2-2-|-0-0-0-0-0-0-0-0-|

VERSE PART 1
                 9                10                11                 12
Guitar 1
PM - - - - - - - - - - - - - - - - - - - - - - - - - - - - - - - - - - ¬
e|-----------------|-----------------|-----------------|-----------------|
B|-----------------|-----------------|-----------------|-----------------|
G|-----------------|-----------------|-----------------|-----------------|
D|-----------------|-----------------|-----------------|-----------------|
A|-----------------|-----------------|-----------------|-----------------|----\
D|-9-9-9-9-9-9-9-9-|-9-9-9-9-9-9-9-9-|-2-2-2-2-2-2-2-2-|-5-5-5-5-5-5-5-5-|
Guitar 2
e|-----------------|-----------------|-----------------|-----------------|
B|-----------------|-----------------|-----------------|-----------------|----/
G|-----------------|-----------------|-----------------|-----------------|
D|-9\--------------|-----------------|-----------------|-----------------|
A|-9---------------|-----------------|-----------------|-----------------|
D|-9---------------|-----------------|-----------------|-----------------|
                 13                14                15                16
Guitar 1
PM - - - - - - - - - - - - - - - - - - - - - - - - - - - - - - - - - - ¬
e|-----------------|-----------------|-----------------|-----------------|
B|-----------------|-----------------|-----------------|-----------------|
G|-----------------|-----------------|-----------------|-----------------|
D|-----------------|-----------------|-----------------|-----------------|
A|-----------------|-----------------|-----------------|-----------------|----\
D|-9-9-9-9-9-9-9-9-|-9-9-9-9-9-9-9-9-|-2-2-2-2-2-2-2-2-|-5-5-5-5-5-5-5-5-|
Guitar 2
e|-----------------|-----------------|-----------------|-----------------|
B|-----------------|-----------------|-----------------|-----------------|----/
G|-----------------|-----------------|-----------------|-----------------|
D|-----------------|-----------------|-----------------|-----------------|
A|-----------------|-----------------|-----------------|-----------------|
D|-----------------|-----------------|-----------------|-----------------|
                 17                18                19                20
Guitar 1
PM - - - - - - - - - - - - - - - - - - - - - - - - - - - - - - - - - - ¬
e|-----------------|-----------------|-----------------|-----------------|
B|-----------------|-----------------|-----------------|-----------------|
G|-----------------|-----------------|-----------------|-----------------|
D|-----------------|-----------------|-----------------|-----------------|
A|-----------------|-----------------|-----------------|-----------------|----\
D|-9-9-9-9-9-9-9-9-|-9-9-9-9-9-9-9-9-|-2-2-2-2-2-2-2-2-|-5-5-5-5-5-5-5-5-|
Guitar 2
          ~~~~~~~~~~~~~~~~~~~~~~~~~~~~~~~~~~~~~~~~~~~~~~~~~~~~~~~~~~~~~~
e|-----------------|-----------------|-----------------|-----------------|
B|-----------------|-----------------|-----------------|-----------------|----/
G|-----------------|-----------------|-----------------|-----------------|
D|--------9--------|-----------------|-----------------|----4------------|
A|-----------------|-----------------|-----------------|-----------------|
D|-----------------|-----------------|-----------------|-----------------|
                 21                22                23                24
Guitar 1
PM - - - - - - - - - - - - - - - - - - - - - - - - - - - - - - - - - - ¬
e|-----------------|-----------------|-----------------|-----------------|
B|-----------------|-----------------|-----------------|-----------------|
G|-----------------|-----------------|-----------------|-----------------|
D|-----------------|-----------------|-----------------|-----------------|
A|-----------------|-----------------|-----------------|-----------------|----\
D|-9-9-9-9-9-9-9-9-|-9-9-9-9-9-9-9-9-|-2-2-2-2-2-2-2-2-|-5-5-5-5-5-5-5-5-|
Guitar 2
   ~~~~~~~~~~~~~~~~~~~~~~~~~~~~~~~~~~~~~~~~~~~~~~~~~~~~~~~~~~~~~~~~~~~~~~
e|-----------------|-----------------|-----------------|-----------------|
B|-----------------|-----------------|-----------------|-----------------|----/
G|-----------------|-----------------|-----------------|-----------------|
D|-9---------------|-----------------|-4---------------|-2---------------|
A|-----------------|-----------------|-----------------|-----------------|
D|-----------------|-----------------|-----------------|-----------------|

VERSE PART 2
                 25                26                27                28
Guitar 1
e|-----------------|-----------------|-----------------|-----------------|
B|-----------------|-----------------|-----------------|-----------------|
G|-----------------|-----------------|-----------------|-----------------|
D|-9--9-9-4--4--4--|-2--2-2-7--7--7--|-9--9-9-4--4--4--|-2--2-2-7--7--7--|
A|-9--9-9-4--4--4--|-2--2-2-7--7--7--|-9--9-9-4--4--4--|-2--2-2-7--7--7--|----------------\
D|-9--9-9-4--4--4--|-2--2-2-7--7--7--|-9--9-9-4--4--4--|-2--2-2-7--7--7--|
Guitar 2
e|--------------------|--------------------|--------------------|--------------------|
B|--------------------|--------------------|--------------------|--------------------|----/
G|-11--11-11----------|--------------------|-11--11-11----------|--------------------|
D|-----------11-11-11-|-12-12-12-14--14-14-|-----------11-11-11-|-12-12-12-14--14-14-|
A|--------------------|--------------------|--------------------|--------------------|
D|--------------------|--------------------|--------------------|--------------------|
                 29                30                31                32
Guitar 1
e|-----------------|-----------------|-----------------|-----------------|
B|-----------------|-----------------|-----------------|-----------------|
G|-----------------|-----------------|-----------------|-----------------|
D|-9--9-9-4--4--4--|-2--2-2-7--7--7--|-9--9-9-4--4--4--|-2--2-2-7--7--7--|
A|-9--9-9-4--4--4--|-2--2-2-7--7--7--|-9--9-9-4--4--4--|-2--2-2-7--7--7--|----------------\
D|-9--9-9-4--4--4--|-2--2-2-7--7--7--|-9--9-9-4--4--4--|-2--2-2-7--7--7--|
Guitar 2
e|--------------------|--------------------|--------------------|--------------------|
B|--------------------|--------------------|--------------------|--------------------|----/
G|-11--11-11----------|--------------------|-11--11-11----------|--------------------|
D|-----------11-11-11-|-12-12-12-14--14-14-|-----------11-11-11-|-12-12-12-14--14-14-|
A|--------------------|--------------------|--------------------|--------------------|
D|--------------------|--------------------|--------------------|--------------------|

PRE-CHORUS

                 33                34                35                36
Guitar 1
e|-----------------|-----------------|-----------------|-----------------|
B|-----------------|-----------------|-----------------|-----------------|
G|-----------------|-----------------|-----------------|-----------------|
D|-2-2-2-2-2-2-2-2-|-5-5-5-5-5-5-5-5-|-2-2-2-2-2-2-2-2-|-7-7-7-7-7-7-7-7-|
A|-2-2-2-2-2-2-2-2-|-5-5-5-5-5-5-5-5-|-2-2-2-2-2-2-2-2-|-7-7-7-7-7-7-7-7-|----\
D|-2-2-2-2-2-2-2-2-|-5-5-5-5-5-5-5-5-|-2-2-2-2-2-2-2-2-|-7-7-7-7-7-7-7-7-|
Guitar 2
e|-----------------|-----------------|-----------------|-----------------|
B|-----------------|-----------------|-----------------|-----------------|----/
G|-----------------|-----------------|-----------------|-----------------|
D|-2-2-2-2-2-2-2-2-|-5-5-5-5-5-5-5-5-|-2-2-2-2-2-2-2-7-|-7-7-7-7-7-7-7-7-|
A|-2-2-2-2-2-2-2-2-|-5-5-5-5-5-5-5-5-|-2-2-2-2-2-2-2-7-|-7-7-7-7-7-7-7-7-|
D|-2-2-2-2-2-2-2-2-|-5-5-5-5-5-5-5-5-|-2-2-2-2-2-2-2-7-|-7-7-7-7-7-7-7-7-|

CHORUS

                 37                38                39                40
Guitar 1
e|-----------------|-----------------|-----------------|-----------------|
B|-----------------|-----------------|-----------------|-----------------|
G|-----------------|-----------------|-----------------|-----------------|
D|-0-0-0-0-0-0-0-0-|-0-0-0-0-0-0-0-0-|-7-7-7-7-7-7-7-7-|-7-7-7-7-7-7-7-7-|
A|-0-0-0-0-0-0-0-0-|-0-0-0-0-0-0-0-0-|-7-7-7-7-7-7-7-7-|-7-7-7-7-7-7-7-7-|----\
D|-0-0-0-0-0-0-0-0-|-0-0-0-0-0-0-0-0-|-7-7-7-7-7-7-7-7-|-7-7-7-7-7-7-7-7-|
Guitar 2
e|-----------------|-----------------|-----------------|-----------------|
B|-----------------|-----------------|-----------------|-----------------|----/
G|-----------------|-----------------|-----------------|-----------------|
D|-0-0-0-0-0-0-0-0-|-0-0-0-0-0-0-0-0-|-7-7-7-7-7-7-7-7-|-7-7-7-7-7-7-7-7-|
A|-0-0-0-0-0-0-0-0-|-0-0-0-0-0-0-0-0-|-7-7-7-7-7-7-7-7-|-7-7-7-7-7-7-7-7-|
D|-0-0-0-0-0-0-0-0-|-0-0-0-0-0-0-0-0-|-7-7-7-7-7-7-7-7-|-7-7-7-7-7-7-7-7-|
                 41                42                43                44
Guitar 1
e|-----------------|-----------------|-----------------|-----------------|
B|-----------------|-----------------|-----------------|-----------------|
G|-----------------|-----------------|-----------------|-----------------|
D|-9-9-9-9-9-9-9-9-|-9-9-9-9-9-9-9-9-|-5-5-5-5-5-5-5-5-|-5-5-5-5-5-5-5-5-|
A|-9-9-9-9-9-9-9-9-|-9-9-9-9-9-9-9-9-|-5-5-5-5-5-5-5-5-|-5-5-5-5-5-5-5-5-|----\
D|-9-9-9-9-9-9-9-9-|-9-9-9-9-9-9-9-9-|-5-5-5-5-5-5-5-5-|-5-5-5-5-5-5-5-5-|
Guitar 2
e|-----------------|-----------------|-----------------|-----------------|
B|-----------------|-----------------|-----------------|-----------------|----/
G|-----------------|-----------------|-----------------|-----------------|
D|-9-9-9-9-9-9-9-9-|-9-9-9-9-9-9-9-9-|-5-5-5-5-5-5-5-5-|-5-5-5-5-5-5-5-5-|
A|-9-9-9-9-9-9-9-9-|-9-9-9-9-9-9-9-9-|-5-5-5-5-5-5-5-5-|-5-5-5-5-5-5-5-5-|
D|-9-9-9-9-9-9-9-9-|-9-9-9-9-9-9-9-9-|-5-5-5-5-5-5-5-5-|-5-5-5-5-5-5-5-5-|
                 45                46                47                48
Guitar 1
e|-----------------|-----------------|-----------------|-----------------|
B|-----------------|-----------------|-----------------|-----------------|
G|-----------------|-----------------|-----------------|-----------------|
D|-0-0-0-0-0-0-0-0-|-0-0-0-0-0-0-0-0-|-7-7-7-7-7-7-7-7-|-7-7-7-7-7-7-7-7-|
A|-0-0-0-0-0-0-0-0-|-0-0-0-0-0-0-0-0-|-7-7-7-7-7-7-7-7-|-7-7-7-7-7-7-7-7-|----\
D|-0-0-0-0-0-0-0-0-|-0-0-0-0-0-0-0-0-|-7-7-7-7-7-7-7-7-|-7-7-7-7-7-7-7-7-|
Guitar 2
e|-----------------|-----------------|-----------------|-----------------|
B|-----------------|-----------------|-----------------|-----------------|----/
G|-----------------|-----------------|-----------------|-----------------|
D|-0-0-0-0-0-0-0-0-|-0-0-0-0-0-0-0-0-|-7-7-7-7-7-7-7-7-|-7-7-7-7-7-7-7-7-|
A|-0-0-0-0-0-0-0-0-|-0-0-0-0-0-0-0-0-|-7-7-7-7-7-7-7-7-|-7-7-7-7-7-7-7-7-|
D|-0-0-0-0-0-0-0-0-|-0-0-0-0-0-0-0-0-|-7-7-7-7-7-7-7-7-|-7-7-7-7-7-7-7-7-|
                 49                50                51                52
Guitar 1
e|-----------------|-----------------|-----------------|-----------------|
B|-----------------|-----------------|-----------------|-----------------|
G|-----------------|-----------------|-----------------|-----------------|
D|-9-9-9-9-9-9-9-9-|-9-9-9-9-9-9-9-9-|-5-5-5-5-5-5-5-5-|-5-5-5-5-5-5-5-5-|
A|-9-9-9-9-9-9-9-9-|-9-9-9-9-9-9-9-9-|-5-5-5-5-5-5-5-5-|-5-5-5-5-5-5-5-5-|----\
D|-9-9-9-9-9-9-9-9-|-9-9-9-9-9-9-9-9-|-5-5-5-5-5-5-5-5-|-5-5-5-5-5-5-5-5-|
Guitar 2
e|-----------------|-----------------|-----------------|-----------------|
B|-----------------|-----------------|-----------------|-----------------|----/
G|-----------------|-----------------|-----------------|-----------------|
D|-9-9-9-9-9-9-9-9-|-9-9-9-9-9-9-9-9-|-5-5-5-5-5-5-5-5-|-5-5-5-5-5-5-5-5-|
A|-9-9-9-9-9-9-9-9-|-9-9-9-9-9-9-9-9-|-5-5-5-5-5-5-5-5-|-5-5-5-5-5-5-5-5-|
D|-9-9-9-9-9-9-9-9-|-9-9-9-9-9-9-9-9-|-5-5-5-5-5-5-5-5-|-5-5-5-5-5-5-5-5-|

PRE-VERSE

                 53                54                55                56
Guitar 1
e|-----------------|-----------------|-----------------|-----------------|
B|-----------------|-----------------|-----------------|-----------------|
G|-----------------|-----------------|-----------------|-----------------|
D|-9-9-9-9-9-9-9-9-|-4-4-4-4-4-4-4-4-|-5-5-5-5-5-5-5-5-|-7-7-7-7-7-7-7-7-|
A|-9-9-9-9-9-9-9-9-|-4-4-4-4-4-4-4-4-|-5-5-5-5-5-5-5-5-|-7-7-7-7-7-7-7-7-|----\
D|-9-9-9-9-9-9-9-9-|-4-4-4-4-4-4-4-4-|-5-5-5-5-5-5-5-5-|-7-7-7-7-7-7-7-7-|
Guitar 2
e|-----------------|-----------------|-----------------|-----------------|
B|-----------------|-----------------|-----------------|-----------------|----/
G|-----------------|-----------------|-----------------|-----------------|
D|-9-9-9-9-9-9-9-9-|-4-4-4-4-4-4-4-4-|-2-2-2-2-2-2-2-2-|-0-0-0-0-0-0-0-0-|
A|-9-9-9-9-9-9-9-9-|-4-4-4-4-4-4-4-4-|-2-2-2-2-2-2-2-2-|-0-0-0-0-0-0-0-0-|
D|-9-9-9-9-9-9-9-9-|-4-4-4-4-4-4-4-4-|-2-2-2-2-2-2-2-2-|-0-0-0-0-0-0-0-0-|

VERSE 2

                 57                58                59                60
Guitar 1
e|-----------------|-----------------|-----------------|-----------------|
B|-----------------|-----------------|-----------------|-----------------|
G|-----------------|-----------------|-----------------|-----------------|
D|-9-9-9-9-9-9-9-9-|-9-9-9-9-9-9-9-9-|-9-9-9-9-9-9-9-9-|-9-9-9-9-9-9-9-9-|
A|-9-9-9-9-9-9-9-9-|-9-9-9-9-9-9-9-9-|-9-9-9-9-9-9-9-9-|-9-9-9-9-9-9-9-9-|----\
D|-9-9-9-9-9-9-9-9-|-9-9-9-9-9-9-9-9-|-9-9-9-9-9-9-9-9-|-9-9-9-9-9-9-9-9-|
Guitar 2
e|-----------------|-----------------|-----------------|-----------------|
B|-----------------|-----------------|-----------------|-----------------|----/
G|-----------------|-----------------|-----------------|-----------------|
D|-9-9-9-9-9-9-9-9-|-9-9-9-9-9-9-9-9-|-9-9-9-9-9-9-9-9-|-9-9-9-9-9-9-9-9-|
A|-9-9-9-9-9-9-9-9-|-9-9-9-9-9-9-9-9-|-9-9-9-9-9-9-9-9-|-9-9-9-9-9-9-9-9-|
D|-9-9-9-9-9-9-9-9-|-9-9-9-9-9-9-9-9-|-9-9-9-9-9-9-9-9-|-9-9-9-9-9-9-9-9-|
                 61                62                63                64
Guitar 1
e|-----------------|-----------------|-----------------|-----------------|
B|-----------------|-----------------|-----------------|-----------------|
G|-----------------|-----------------|-----------------|-----------------|
D|-2-2-2-2-2-2-2-2-|-2-2-2-2-2-2-2-2-|-5-5-5-5-5-5-5-5-|-5-5-5-5-5-5-5-5-|
A|-2-2-2-2-2-2-2-2-|-2-2-2-2-2-2-2-2-|-5-5-5-5-5-5-5-5-|-5-5-5-5-5-5-5-5-|----\
D|-2-2-2-2-2-2-2-2-|-2-2-2-2-2-2-2-2-|-5-5-5-5-5-5-5-5-|-5-5-5-5-5-5-5-5-|
Guitar 2
e|-----------------|-----------------|-----------------|-----------------|
B|-----------------|-----------------|-----------------|-----------------|----/
G|-9--7-6-7-6------|-7---------------|-9--7-6-7-6------|-----------------|
D|-------------7/9-|-----------------|-------------7/9-|-----------------|
A|-----------------|-----------------|-----------------|-----------------|
D|-----------------|-----------------|-----------------|-----------------|
                 65                66                67                68
Guitar 1
e|-----------------|-----------------|-----------------|-----------------|
B|-----------------|-----------------|-----------------|-----------------|
G|-----------------|-----------------|-----------------|-----------------|
D|-9-9-9-9-9-9-9-9-|-9-9-9-9-9-9-9-9-|-9-9-9-9-9-9-9-9-|-9-9-9-9-9-9-9-9-|
A|-9-9-9-9-9-9-9-9-|-9-9-9-9-9-9-9-9-|-9-9-9-9-9-9-9-9-|-9-9-9-9-9-9-9-9-|----\
D|-9-9-9-9-9-9-9-9-|-9-9-9-9-9-9-9-9-|-9-9-9-9-9-9-9-9-|-9-9-9-9-9-9-9-9-|

e|-----------------|-----------------|-----------------|-----------------|
B|-----------------|-----------------|-----------------|-----------------|----/
G|-----------------|-----------------|-----------------|-----------------|
D|-9-9-9-9-9-9-9-9-|-9-9-9-9-9-9-9-9-|-9-9-9-9-9-9-9-9-|-9-9-9-9-9-9-9-9-|
A|-9-9-9-9-9-9-9-9-|-9-9-9-9-9-9-9-9-|-9-9-9-9-9-9-9-9-|-9-9-9-9-9-9-9-9-|
D|-9-9-9-9-9-9-9-9-|-9-9-9-9-9-9-9-9-|-9-9-9-9-9-9-9-9-|-9-9-9-9-9-9-9-9-|
                 69                70                71                72
Guitar 1
e|-----------------|-----------------|-----------------|-----------------|
B|-----------------|-----------------|-----------------|-----------------|
G|-----------------|-----------------|-----------------|-----------------|
D|-2-2-2-2-2-2-2-2-|-2-2-2-2-2-2-2-2-|-5-5-5-5-5-5-5-5-|-5-5-5-5-5-5-5-5-|
A|-2-2-2-2-2-2-2-2-|-2-2-2-2-2-2-2-2-|-5-5-5-5-5-5-5-5-|-5-5-5-5-5-5-5-5-|----\
D|-2-2-2-2-2-2-2-2-|-2-2-2-2-2-2-2-2-|-5-5-5-5-5-5-5-5-|-5-5-5-5-5-5-5-5-|
Guitar 2
e|-----------------|-----------------|-----------------|-----------------|
B|-----------------|-----------------|-----------------|-----------------|----/
G|-9--7-6-7-6------|-7---------------|-9--7-6-7-6------|-----------------|
D|-------------7/9-|-----------------|-------------7/9-|-----------------|
A|-----------------|-----------------|-----------------|-----------------|
D|-----------------|-----------------|-----------------|-----------------|

PRE-CHORUS

                 73                74                75                76
Guitar 1
e|-----------------|-----------------|-----------------|-----------------|
B|-----------------|-----------------|-----------------|-----------------|
G|-----------------|-----------------|-----------------|-----------------|
D|-2-2-2-2-2-2-2-2-|-5-5-5-5-5-5-5-5-|-2-2-2-2-2-2-2-2-|-7-7-7-7-7-7-7-7-|
A|-2-2-2-2-2-2-2-2-|-5-5-5-5-5-5-5-5-|-2-2-2-2-2-2-2-2-|-7-7-7-7-7-7-7-7-|----\
D|-2-2-2-2-2-2-2-2-|-5-5-5-5-5-5-5-5-|-2-2-2-2-2-2-2-2-|-7-7-7-7-7-7-7-7-|
Guitar 2
e|-----------------|-----------------|-----------------|-----------------|
B|-----------------|-----------------|-----------------|-----------------|----/
G|-----------------|-----------------|-----------------|-----------------|
D|-2-2-2-2-2-2-2-2-|-5-5-5-5-5-5-5-5-|-2-2-2-2-2-2-2-7-|-7-7-7-7-7-7-7-7-|
A|-2-2-2-2-2-2-2-2-|-5-5-5-5-5-5-5-5-|-2-2-2-2-2-2-2-7-|-7-7-7-7-7-7-7-7-|
D|-2-2-2-2-2-2-2-2-|-5-5-5-5-5-5-5-5-|-2-2-2-2-2-2-2-7-|-7-7-7-7-7-7-7-7-|

CHORUS

                 77                78                79                80
Guitar 1
e|-----------------|-----------------|-----------------|-----------------|
B|-----------------|-----------------|-----------------|-----------------|
G|-----------------|-----------------|-----------------|-----------------|
D|-0-0-0-0-0-0-0-0-|-0-0-0-0-0-0-0-0-|-7-7-7-7-7-7-7-7-|-7-7-7-7-7-7-7-7-|
A|-0-0-0-0-0-0-0-0-|-0-0-0-0-0-0-0-0-|-7-7-7-7-7-7-7-7-|-7-7-7-7-7-7-7-7-|----\
D|-0-0-0-0-0-0-0-0-|-0-0-0-0-0-0-0-0-|-7-7-7-7-7-7-7-7-|-7-7-7-7-7-7-7-7-|
Guitar 2
e|-----------------|-----------------|-----------------|-----------------|
B|-----------------|-----------------|-----------------|-----------------|----/
G|-----------------|-----------------|-----------------|-----------------|
D|-0-0-0-0-0-0-0-0-|-0-0-0-0-0-0-0-0-|-7-7-7-7-7-7-7-7-|-7-7-7-7-7-7-7-7-|
A|-0-0-0-0-0-0-0-0-|-0-0-0-0-0-0-0-0-|-7-7-7-7-7-7-7-7-|-7-7-7-7-7-7-7-7-|
D|-0-0-0-0-0-0-0-0-|-0-0-0-0-0-0-0-0-|-7-7-7-7-7-7-7-7-|-7-7-7-7-7-7-7-7-|
                 81                82                83                84
Guitar 1
e|-----------------|-----------------|-----------------|-----------------|
B|-----------------|-----------------|-----------------|-----------------|
G|-----------------|-----------------|-----------------|-----------------|
D|-9-9-9-9-9-9-9-9-|-9-9-9-9-9-9-9-9-|-5-5-5-5-5-5-5-5-|-5-5-5-5-5-5-5-5-|
A|-9-9-9-9-9-9-9-9-|-9-9-9-9-9-9-9-9-|-5-5-5-5-5-5-5-5-|-5-5-5-5-5-5-5-5-|----\
D|-9-9-9-9-9-9-9-9-|-9-9-9-9-9-9-9-9-|-5-5-5-5-5-5-5-5-|-5-5-5-5-5-5-5-5-|
Guitar 2
e|-----------------|-----------------|-----------------|-----------------|
B|-----------------|-----------------|-----------------|-----------------|----/
G|-----------------|-----------------|-----------------|-----------------|
D|-9-9-9-9-9-9-9-9-|-9-9-9-9-9-9-9-9-|-5-5-5-5-5-5-5-5-|-5-5-5-5-5-5-5-5-|
A|-9-9-9-9-9-9-9-9-|-9-9-9-9-9-9-9-9-|-5-5-5-5-5-5-5-5-|-5-5-5-5-5-5-5-5-|
D|-9-9-9-9-9-9-9-9-|-9-9-9-9-9-9-9-9-|-5-5-5-5-5-5-5-5-|-5-5-5-5-5-5-5-5-|
                 85                86                87                88
Guitar 1
e|-----------------|-----------------|-----------------|-----------------|
B|-----------------|-----------------|-----------------|-----------------|
G|-----------------|-----------------|-----------------|-----------------|
D|-0-0-0-0-0-0-0-0-|-0-0-0-0-0-0-0-0-|-7-7-7-7-7-7-7-7-|-7-7-7-7-7-7-7-7-|
A|-0-0-0-0-0-0-0-0-|-0-0-0-0-0-0-0-0-|-7-7-7-7-7-7-7-7-|-7-7-7-7-7-7-7-7-|----\
D|-0-0-0-0-0-0-0-0-|-0-0-0-0-0-0-0-0-|-7-7-7-7-7-7-7-7-|-7-7-7-7-7-7-7-7-|
Guitar 2
e|-----------------|-----------------|-----------------|-----------------|
B|-----------------|-----------------|-----------------|-----------------|----/
G|-----------------|-----------------|-----------------|-----------------|
D|-0-0-0-0-0-0-0-0-|-0-0-0-0-0-0-0-0-|-7-7-7-7-7-7-7-7-|-7-7-7-7-7-7-7-7-|
A|-0-0-0-0-0-0-0-0-|-0-0-0-0-0-0-0-0-|-7-7-7-7-7-7-7-7-|-7-7-7-7-7-7-7-7-|
D|-0-0-0-0-0-0-0-0-|-0-0-0-0-0-0-0-0-|-7-7-7-7-7-7-7-7-|-7-7-7-7-7-7-7-7-|
                 89                90                91                92
Guitar 1
e|-----------------|-----------------|-----------------|-----------------|
B|-----------------|-----------------|-----------------|-----------------|
G|-----------------|-----------------|-----------------|-----------------|
D|-9-9-9-9-9-9-9-9-|-9-9-9-9-9-9-9-9-|-5-5-5-5-5-5-5-5-|-5-5-5-5-5-5-5-5-|
A|-9-9-9-9-9-9-9-9-|-9-9-9-9-9-9-9-9-|-5-5-5-5-5-5-5-5-|-5-5-5-5-5-5-5-5-|----\
D|-9-9-9-9-9-9-9-9-|-9-9-9-9-9-9-9-9-|-5-5-5-5-5-5-5-5-|-5-5-5-5-5-5-5-5-|
Guitar 2
e|-----------------|-----------------|-----------------|-----------------|
B|-----------------|-----------------|-----------------|-----------------|----/
G|-----------------|-----------------|-----------------|-----------------|
D|-9-9-9-9-9-9-9-9-|-9-9-9-9-9-9-9-9-|-5-5-5-5-5-5-5-5-|-5-5-5-5-5-5-5-5-|
A|-9-9-9-9-9-9-9-9-|-9-9-9-9-9-9-9-9-|-5-5-5-5-5-5-5-5-|-5-5-5-5-5-5-5-5-|
D|-9-9-9-9-9-9-9-9-|-9-9-9-9-9-9-9-9-|-5-5-5-5-5-5-5-5-|-5-5-5-5-5-5-5-5-|

BRIDGE

                 93                94                95                96
Guitar 1
e|-----------------|-----------------|-----------------|-----------------|
B|-----------------|-----------------|-----------------|-----------------|
G|-----------------|-----------------|-----------------|-----------------|
D|-7--9-9----9--7--|-7--9-9----9--7--|-0-0-0-0-0-0-0-0-|-0-0-0-0-0-0-0-0-|
A|-7--9-9----9--7--|-7--9-9----9--7--|-0-0-0-0-0-0-0-0-|-0-0-0-0-0-0-0-0-|----\
D|-7--9-9----9--7--|-7--9-9----9--7--|-0-0-0-0-0-0-0-0-|-0-0-0-0-0-0-0-0-|
Guitar 2
e|-----------------|-----------------|-----------------|-----------------|
B|-----------------|-----------------|-----------------|-----------------|----/
G|-----------------|-----------------|-7-7-7-7-7-7-7-7-|-7-7-7-7-7-7-7-7-|
D|-7--9-9----9--7--|-7--9-9----9--7--|-x-x-x-x-x-x-x-x-|-x-x-x-x-x-x-x-x-|
A|-7--9-9----9--7--|-7--9-9----9--7--|-5-5-5-5-5-5-5-5-|-5-5-5-5-5-5-5-5-|
D|-7--9-9----9--7--|-7--9-9----9--7--|-----------------|-----------------|

                 97                98                99               100
Guitar 1
e|-----------------|-----------------|-----------------|-----------------|
B|-----------------|-----------------|-----------------|-----------------|
G|-----------------|-----------------|-----------------|-----------------|
D|-7--9-9----9--7--|-7--9-9----9--7--|-0-0-0-0-0-0-0-0-|-0-0-0-0-0-0-0-0-|
A|-7--9-9----9--7--|-7--9-9----9--7--|-0-0-0-0-0-0-0-0-|-0-0-0-0-0-0-0-0-|----\
D|-7--9-9----9--7--|-7--9-9----9--7--|-0-0-0-0-0-0-0-0-|-0-0-0-0-0-0-0-0-|
Guitar 2
e|-----------------|-----------------|-----------------|-----------------|
B|-----------------|-----------------|-----------------|-----------------|----/
G|-----------------|-----------------|-7-7-7-7-7-7-7-7-|-7-7-7-7-7-7-7-7-|
D|-7--9-9----9--7--|-7--9-9----9--7--|-x-x-x-x-x-x-x-x-|-x-x-x-x-x-x-x-x-|
A|-7--9-9----9--7--|-7--9-9----9--7--|-5-5-5-5-5-5-5-5-|-5-5-5-5-5-5-5-5-|
D|-7--9-9----9--7--|-7--9-9----9--7--|-----------------|-----------------|

                101               102               103               104
Guitar 1
e|-----------------|-----------------|-----------------|-----------------|
B|-----------------|-----------------|-----------------|-----------------|
G|-----------------|-----------------|-----------------|-----------------|
D|-7--9-9----9--7--|-7--9-9----9--7--|-0-0-0-0-0-0-0-0-|-0-0-0-0-0-0-0-0-|
A|-7--9-9----9--7--|-7--9-9----9--7--|-0-0-0-0-0-0-0-0-|-0-0-0-0-0-0-0-0-|----\
D|-7--9-9----9--7--|-7--9-9----9--7--|-0-0-0-0-0-0-0-0-|-0-0-0-0-0-0-0-0-|
Guitar 2
e|-----------------|-----------------|-----------------|-----------------|
B|-----------------|-----------------|-----------------|-----------------|----/
G|-----------------|-----------------|-7-7-7-7-7-7-7-7-|-7-7-7-7-7-7-7-7-|
D|-7--9-9----9--7--|-7--9-9----9--7--|-x-x-x-x-x-x-x-x-|-x-x-x-x-x-x-x-x-|
A|-7--9-9----9--7--|-7--9-9----9--7--|-5-5-5-5-5-5-5-5-|-5-5-5-5-5-5-5-5-|
D|-7--9-9----9--7--|-7--9-9----9--7--|-----------------|-----------------|

                105               106               107               108
Guitar 1
e|-----------------|-----------------|-----------------|-----------------|
B|-----------------|-----------------|-----------------|-----------------|
G|-----------------|-----------------|-----------------|-----------------|
D|-7--9-9----9--7--|-7--9-9----9--7--|-0-0-0-0-0-0-0-0-|-0-0-0-0-0-0-0-0-|
A|-7--9-9----9--7--|-7--9-9----9--7--|-0-0-0-0-0-0-0-0-|-0-0-0-0-0-0-0-0-|----\
D|-7--9-9----9--7--|-7--9-9----9--7--|-0-0-0-0-0-0-0-0-|-0-0-0-0-0-0-0-0-|
Guitar 2
e|-----------------|-----------------|-----------------|-----------------|
B|-----------------|-----------------|-----------------|-----------------|----/
G|-----------------|-----------------|-7-7-7-7-7-7-7-7-|-7-7-7-7-7-7-7-7-|
D|-7--9-9----9--7--|-7--9-9----9--7--|-x-x-x-x-x-x-x-x-|-x-x-x-x-x-x-x-x-|
A|-7--9-9----9--7--|-7--9-9----9--7--|-5-5-5-5-5-5-5-5-|-5-5-5-5-5-5-5-5-|
D|-7--9-9----9--7--|-7--9-9----9--7--|-----------------|-----------------|

BRIDGE 2

                109               110               111               112
Guitar 1
e|-----5-----------|-----5-----------|-----5-----------|-----5-----------|
B|--------5--------|--------5--------|--------5--------|--------5--------|
G|-----------7-----|-----------7-----|-----------7-----|-----------7-----|
D|-----------------|-----------------|-----------------|-----------------|
A|-5---------------|-5---------------|-5---------------|-5---------------|----\
D|-----------------|-----------------|-----------------|-----------------|
Guitar 2
e|-----------------|-----------------|-----------------|-----------------|
B|-----------------|-----------------|-----------------|-----------------|----/
G|-----------------|-----------------|-----------------|-----------------|
D|-0---------------|-----------------|-----------------|-----------------|
A|-0---------------|-----------------|-----------------|-----------------|
D|-0---------------|-----------------|-----------------|-----------------|
                113               114               115               116
Guitar 1
e|-----5-----------|------5----^5----|-----------------|-----------------|
B|--------5--------|---------5-|5----|-----------------|-----------------|
G|-----------7-----|-----------|7----|-----------------|-----------------|
D|-----------------|-----------|7----|-----------------|.0-0-0-0-0-0-0-0-|
A|-5---------------|-5---------|5----|-----------------|.0-0-0-0-0-0-0-0-|----\
D|-----------------|-----------------|-----------------|-0-0-0-0-0-0-0-0-|
Guitar 2
e|-----------------|-----------------|-----------------|-----------------|
B|-----------------|-----------------|-----------------|-----------------|----/
G|-----------------|-----------------|-----------------|.----------------|
D|-----------------|-----------------|-----------------|.0-0-0-0-0-0-0-0-|
A|-----------------|-----------------|-----------------|-0-0-0-0-0-0-0-0-|
D|-----------------|-----------------|-----------------|-0-0-0-0-0-0-0-0-|
                117               118               119               120
Guitar 1
e|-----------------|-----------------|-----------------|-----------------|
B|-----------------|-----------------|-----------------|-----------------|
G|-----------------|-----------------|-----------------|-----------------|
D|-0-0-0-0-0-0-0-0-|-7-7-7-7-7-7-7-7-|-7-7-7-7-7-7-7-7-|-9-9-9-9-9-9-9-9-|
A|-0-0-0-0-0-0-0-0-|-7-7-7-7-7-7-7-7-|-7-7-7-7-7-7-7-7-|-9-9-9-9-9-9-9-9-|----\
D|-0-0-0-0-0-0-0-0-|-7-7-7-7-7-7-7-7-|-7-7-7-7-7-7-7-7-|-9-9-9-9-9-9-9-9-|
Guitar 2
e|-----------------|-----------------|-----------------|-----------------|
B|-----------------|-----------------|-----------------|-----------------|----/
G|-----------------|-----------------|-----------------|-----------------|
D|-0-0-0-0-0-0-0-0-|-7-7-7-7-7-7-7-7-|-7-7-7-7-7-7-7-7-|-9-9-9-9-9-9-9-9-|
A|-0-0-0-0-0-0-0-0-|-7-7-7-7-7-7-7-7-|-7-7-7-7-7-7-7-7-|-9-9-9-9-9-9-9-9-|
D|-0-0-0-0-0-0-0-0-|-7-7-7-7-7-7-7-7-|-7-7-7-7-7-7-7-7-|-9-9-9-9-9-9-9-9-|
                121               122               123               124
Guitar 1
e|-----------------|-----------------|-----------------|-----------------|
B|-----------------|-----------------|-----------------|-----------------|
G|-----------------|-----------------|----------------.|-----------------|
D|-9-9-9-9-9-9-9-9-|-5-5-5-5-5-5-5-5-|-5-5-5-5-5-5-5-5.|-0-0-0-0-0-0-0-0-|
A|-9-9-9-9-9-9-9-9-|-5-5-5-5-5-5-5-5-|-5-5-5-5-5-5-5-5-|-0-0-0-0-0-0-0-0-|----\
D|-9-9-9-9-9-9-9-9-|-5-5-5-5-5-5-5-5-|-5-5-5-5-5-5-5-5-|-0-0-0-0-0-0-0-0-|
Guitar2
e|-----------------|-----------------|-----------------|-----------------|
B|-----------------|-----------------|-----------------|-----------------|----/
G|-----------------|-----------------|----------------.|-----------------|
D|-9-9-9-9-9-9-9-9-|-5-5-5-5-5-5-5-5-|-5-5-5-5-5-5-5-5.|-0-0-0-0-0-0-0-0-|
A|-9-9-9-9-9-9-9-9-|-5-5-5-5-5-5-5-5-|-5-5-5-5-5-5-5-5-|-0-0-0-0-0-0-0-0-|
D|-9-9-9-9-9-9-9-9-|-5-5-5-5-5-5-5-5-|-5-5-5-5-5-5-5-5-|-0-0-0-0-0-0-0-0-|
                125               126               127               128
Guitar 1
e|-----------------|-----------------|-----------------|-----------------|
B|-----------------|-----------------|-----------------|-----------------|
G|-----------------|-----------------|-----------------|-----------------|
D|-0-0-0-0-0-0-0-0-|-7-7-7-7-7-7-7-7-|-7-7-7-7-7-7-7-7-|-9-9-9-9-9-9-9-9-|
A|-0-0-0-0-0-0-0-0-|-7-7-7-7-7-7-7-7-|-7-7-7-7-7-7-7-7-|-9-9-9-9-9-9-9-9-|----\
D|-0-0-0-0-0-0-0-0-|-7-7-7-7-7-7-7-7-|-7-7-7-7-7-7-7-7-|-9-9-9-9-9-9-9-9-|
Guitar 2
e|-----------------|-----------------|-----------------|-----------------|
B|-----------------|-----------------|-----------------|-----------------|----/
G|-----------------|-----------------|-----------------|-----------------|
D|-0-0-0-0-0-0-0-0-|-7-7-7-7-7-7-7-7-|-7-7-7-7-7-7-7-7-|-9-9-9-9-9-9-9-9-|
A|-0-0-0-0-0-0-0-0-|-7-7-7-7-7-7-7-7-|-7-7-7-7-7-7-7-7-|-9-9-9-9-9-9-9-9-|
D|-0-0-0-0-0-0-0-0-|-7-7-7-7-7-7-7-7-|-7-7-7-7-7-7-7-7-|-9-9-9-9-9-9-9-9-|
                129               130               131               132
Guitar 1
e|-----------------|-----------------|-----------------|-----------------|
B|-----------------|-----------------|-----------------|-----------------|
G|-----------------|-----------------|-----------------|-----------------|
D|-9-9-9-9-9-9-9-9-|-5-5-5-5-5-5-5-5-|-5-5-5-5-5-5-5-5-|-0-0-0-0-0-0-0-0-|
A|-9-9-9-9-9-9-9-9-|-5-5-5-5-5-5-5-5-|-5-5-5-5-5-5-5-5-|-0-0-0-0-0-0-0-0-|----\
D|-9-9-9-9-9-9-9-9-|-5-5-5-5-5-5-5-5-|-5-5-5-5-5-5-5-5-|-0-0-0-0-0-0-0-0-|
Guitar 2
e|-----------------|-----------------|-----------------|-----------------|
B|-----------------|-----------------|-----------------|-----------------|----/
G|-----------------|-----------------|-----------------|-----------------|
D|-9-9-9-9-9-9-9-9-|-5-5-5-5-5-5-5-5-|-5-5-5-5-5-5-5-5-|-0-0-0-0-0-0-0-0-|
A|-9-9-9-9-9-9-9-9-|-5-5-5-5-5-5-5-5-|-5-5-5-5-5-5-5-5-|-0-0-0-0-0-0-0-0-|
D|-9-9-9-9-9-9-9-9-|-5-5-5-5-5-5-5-5-|-5-5-5-5-5-5-5-5-|-0-0-0-0-0-0-0-0-|
                133               134               135               136
Guitar 1
e|-----------------|-----------------|-----------------|-----------------|
B|-----------------|-----------------|-----------------|-----------------|
G|-----------------|-----------------|-----------------|-----------------|
D|-0-0-0-0-0-0-0-0-|-7-7-7-7-7-7-7-7-|-7-7-7-7-7-7-7-7-|-9-9-9-9-9-9-9-9-|
A|-0-0-0-0-0-0-0-0-|-7-7-7-7-7-7-7-7-|-7-7-7-7-7-7-7-7-|-9-9-9-9-9-9-9-9-|----\
D|-0-0-0-0-0-0-0-0-|-7-7-7-7-7-7-7-7-|-7-7-7-7-7-7-7-7-|-9-9-9-9-9-9-9-9-|
Guitar 2
e|-----------------|-----------------|-----------------|-----------------|
B|-----------------|-----------------|-----------------|-----------------|----/
G|-----------------|-----------------|-----------------|-----------------|
D|-0-0-0-0-0-0-0-0-|-7-7-7-7-7-7-7-7-|-7-7-7-7-7-7-7-7-|-9-9-9-9-9-9-9-9-|
A|-0-0-0-0-0-0-0-0-|-7-7-7-7-7-7-7-7-|-7-7-7-7-7-7-7-7-|-9-9-9-9-9-9-9-9-|
D|-0-0-0-0-0-0-0-0-|-7-7-7-7-7-7-7-7-|-7-7-7-7-7-7-7-7-|-9-9-9-9-9-9-9-9-|
                137               138               139               140
Guitar 1
e|-----------------|-----------------|-----------------|-----------------|
B|-----------------|-----------------|-----------------|-----------------|
G|-----------------|-----------------|-----------------|-----------------|
D|-9-9-9-9-9-9-9-9-|-5-5-5-5-5-5-5-5-|-5-5-5-5-5-5-5-5-|-0-0-0-0-0-0-0-0-|
A|-9-9-9-9-9-9-9-9-|-5-5-5-5-5-5-5-5-|-5-5-5-5-5-5-5-5-|-0-0-0-0-0-0-0-0-|----\
D|-9-9-9-9-9-9-9-9-|-5-5-5-5-5-5-5-5-|-5-5-5-5-5-5-5-5-|-0-0-0-0-0-0-0-0-|
Guitar 2
e|-----------------|-----------------|-----------------|-----------------|
B|-----------------|-----------------|-----------------|-----------------|----/
G|-----------------|-----------------|-----------------|-----------------|
D|-9-9-9-9-9-9-9-9-|-5-5-5-5-5-5-5-5-|-5-5-5-5-5-5-5-5-|-0-0-0-0-0-0-0-0-|
A|-9-9-9-9-9-9-9-9-|-5-5-5-5-5-5-5-5-|-5-5-5-5-5-5-5-5-|-0-0-0-0-0-0-0-0-|
D|-9-9-9-9-9-9-9-9-|-5-5-5-5-5-5-5-5-|-5-5-5-5-5-5-5-5-|-0-0-0-0-0-0-0-0-|
                141               142               143               144
Guitar 1
e|-----------------|-----------------|-----------------|-----------------|
B|-----------------|-----------------|-----------------|-----------------|
G|-----------------|-----------------|-----------------|-----------------|
D|-0-0-0-0-0-0-0-0-|-7-7-7-7-7-7-7-7-|-7-7-7-7-7-7-7-7-|-9-9-9-9-9-9-9-9-|
A|-0-0-0-0-0-0-0-0-|-7-7-7-7-7-7-7-7-|-7-7-7-7-7-7-7-7-|-9-9-9-9-9-9-9-9-|----\
D|-0-0-0-0-0-0-0-0-|-7-7-7-7-7-7-7-7-|-7-7-7-7-7-7-7-7-|-9-9-9-9-9-9-9-9-|
Guitar 2
e|-----------------|-----------------|-----------------|-----------------|
B|-----------------|-----------------|-----------------|-----------------|----/
G|-----------------|-----------------|-----------------|-----------------|
D|-0-0-0-0-0-0-0-0-|-7-7-7-7-7-7-7-7-|-7-7-7-7-7-7-7-7-|-9-9-9-9-9-9-9-9-|
A|-0-0-0-0-0-0-0-0-|-7-7-7-7-7-7-7-7-|-7-7-7-7-7-7-7-7-|-9-9-9-9-9-9-9-9-|
D|-0-0-0-0-0-0-0-0-|-7-7-7-7-7-7-7-7-|-7-7-7-7-7-7-7-7-|-9-9-9-9-9-9-9-9-|
                145               146               147               148
Guitar 1
e|-----------------|-----------------|-----------------|-----------------|
B|-----------------|-----------------|-----------------|-----------------|
G|-----------------|-----------------|-----------------|-----------------|
D|-9-9-9-9-9-9-9-9-|-5-5-5-5-5-5-5-5-|-5-5-5-5-5-5-5-5-|-0---------------|
A|-9-9-9-9-9-9-9-9-|-5-5-5-5-5-5-5-5-|-5-5-5-5-5-5-5-5-|-0---------------|----\
D|-9-9-9-9-9-9-9-9-|-5-5-5-5-5-5-5-5-|-5-5-5-5-5-5-5-5-|-0---------------|
Guitar 2
e|-----------------|-----------------|-----------------|-----------------|
B|-----------------|-----------------|-----------------|-----------------|----/
G|-----------------|-----------------|-----------------|-----------------|
D|-9-9-9-9-9-9-9-9-|-5-5-5-5-5-5-5-5-|-5-5-5-5-5-5-5-5-|-0---------------|
A|-9-9-9-9-9-9-9-9-|-5-5-5-5-5-5-5-5-|-5-5-5-5-5-5-5-5-|-0---------------|
D|-9-9-9-9-9-9-9-9-|-5-5-5-5-5-5-5-5-|-5-5-5-5-5-5-5-5-|-0---------------|


| /  slide up
| \  slide down
| h  hammer-on
| p  pull-off
| ~  vibrato
| +  harmonic
| x  Mute note
===============================================================================
comments
We did not receive enough feedback on this tab! Please rate:
print report bad tab
1 2 3 4 5
1 comment total.
0 reply
toaddy wrote on June 4 2010, 12:57 pm

sounds great, best so far

I want to post or [tab]
guest
You may want to rate the tab now too:
select rating
Please do not post tabs as comments. Select "correction" instead!