Oops, an error
Loading. Please wait.

Youve Made Your Bed Tab

ver2
ver2

Whole song

Interactive

More versions @911Tabs.com
6,258 views 1 this week
no commentswrite comment
1 2 3 4 5
excellent!
x 2
Autoscroll
+/-
esc
set tempo
stop
Contributor
Hey! There's an official Ultimate Guitar app which is ideal
for learning songs when you're away from computer. Get the app
WARNING: You are trying to view
                                    content from Ultimate-Guitar.com
                                    in an unauthorized application,
                                    which is prohibited.

                                    Please use an official Ultimate
                                    Guitar Tabs application for iPhone,
                                    iPad or Android to access legitimate
                                    chords, guitar, bass, and drum tabs
                                    from Ultimate-Guitar.com database.

                                    Type "ultimate guitar tabs" in Apple
                                    App Store's or Android Market's
                                    search to find the application.
-------------------------------------------------------------------------------
                             You've Made Your Bed (So Sleep In It) - You Me At Six
-------------------------------------------------------------------------------
Tabbed by: cannibal_freak1
Email: ditto_ditto_3@hotmail.com

Tuning: Drop D

Ok, so i've only JUST this second finished this. The other tabs of this song are good, 
they haven't got both guitars. So i thought i'd give it a shot. I hope it's all good.


Gtr I (D A D G B E) - 'Max Helyer'
Gtr II (D A D G B E) - 'Chris Miller'

  Q=160
 4/4
  Gtr I
  E E E E E E E E E E E E E E E E E E E E E E E E E E E E E E E E
|------------------------------------------------------------------|
|------------------------------------------------------------------|
|---------9---------------9---------------9---------------9--------|
|-----7-----7---7-----7-----7---7-----7-----7---7-----7-----7---7--|
|-9-9---9-----9-----9---9-----9---7-7---7-----7-----7---7-----7----|
|------------------------------------------------------------------|


  Gtr I
  E E E E E E E E   E E E E E E E E   E E E E E E E E   E E E E E E E E
|-----------------|-----------------|-----------------|-----------------|
|-----------------|-----------------|-----------------|-----------------|
|---------9-------|---------9-------|---------9-------|---------9-------|
|-----7-----7---7-|-----7-----7---7-|-----7-----7---7-|-----7-----7---7-|
|-5-5---5-----5---|---5---5-----5---|-7-7---7-----7---|---7---7-----7---|
|-----------------|-----------------|-----------------|-----------------|


    Gtr I
    E E E E E E E E   E E E E E E E E   E E E E E E E E   E E E E E E E E
||------------------|-----------------|-----------------|----------------|
||o-----------------|-----------------|-----------------|----------------|
||----------9-------|---------9-------|---------9-------|---------9------|
||------7-----7---7-|-----7-----7---7-|-----7-----7---7-|-----7-----7---7|
||o-9-9---9-----9---|---9---9-----9---|-7-7---7-----7---|---7---7-----7--|
||------------------|-----------------|-----------------|----------------|
|
|   Gtr II
|   PM----------------------------------------------------------------|
|   E E E E E E E E   E E E E E E E E   E E E E E E E E   E E E E E E E E
||--5-5-5-4-4-4-----|-----------------|-5-5-5-4-4-4-----|----------------|
||o-------------5-5-|-5-5-5-5-5-5-5-5-|-------------5-5-|-5-5-5-5-5-5-5-5|
||------------------|-----------------|-----------------|----------------|
||------------------|-----------------|-----------------|----------------|
||o-----------------|-----------------|-----------------|----------------|
||------------------|-----------------|-----------------|----------------|


  Gtr I
  E E E E E E E E   E E E E E E E E   E E E E E E E E   E E E E E E E E  3x
|-----------------|-----------------|-----------------|------------------||
|-----------------|-----------------|-----------------|-----------------o||
|---------9-------|---------9-------|---------9-------|---------9--------||
|-----7-----7---7-|-----7-----7---7-|-----7-----7---7-|-----7-----7---7--||
|-5-5---5-----5---|---5---5-----5---|-7-7---7-----7---|---7---7-----7---o||
|-----------------|-----------------|-----------------|------------------||
|
| Gtr II
| PM------------------------------------------------------------------|
| E E E E E E E E   E E E E E E E E   E E E E E E E E   E E E E E E E E  3x
|-5-5-5-4-4-4-----|-----------------|-5-5-5-4-4-4-----|------------------||
|-------------5-5-|-5-5-5-5-5-5-5-5-|-------------5-5-|-5-5-5-5-5-5-5-5-o||
|-----------------|-----------------|-----------------|------------------||
|-----------------|-----------------|-----------------|------------------||
|-----------------|-----------------|-----------------|-----------------o||
|-----------------|-----------------|-----------------|------------------||


  Gtr I
  W        +W         W        +W
|-------------------------------------|
|-------------------------------------|
|-9--------(9)--------9--------(9)----|
|-7--------(7)--------7--------(7)----|
|-9--------(9)--------7--------(7)----|
|-------------------------------------|


  Gtr I
  W        +W         W        +W
|-------------------------------------|
|-------------------------------------|
|-9--------(9)--------9--------(9)----|
|-7--------(7)--------9--------(9)----|
|-5--------(5)--------7--------(7)----|
|-------------------------------------|


  Gtr I
  W             +W              W             +W
|-------------|---------------|-------------|---------------|
|-------------|---------------|-------------|---------------|
|-9-----------|-(9)-----------|-9-----------|-(9)-----------|
|-7-----------|-(7)-----------|-7-----------|-(7)-----------|
|-9-----------|-(9)-----------|-7-----------|-(7)-----------|
|-------------|---------------|-------------|---------------|
|
| Gtr II
| PM-----------------------------------------------------|
| Q  Q  Q  Q     Q   Q  Q  Q    Q  Q  Q  Q     Q   Q  Q  Q
|-5--4-----7--|--4------5--4--|-5--4-----7--|--4------5--4--|
|-------5-----|------5--------|-------5-----|------5--------|
|-------------|---------------|-------------|---------------|
|-------------|---------------|-------------|---------------|
|-------------|---------------|-------------|---------------|
|-------------|---------------|-------------|---------------|


  Gtr I
  W             +W              W             +W
|-------------|---------------|-------------|---------------|
|-------------|---------------|-------------|---------------|
|-9-----------|-(9)-----------|-9-----------|-(9)-----------|
|-7-----------|-(7)-----------|-9-----------|-(9)-----------|
|-5-----------|-(5)-----------|-7-----------|-(7)-----------|
|-------------|---------------|-------------|---------------|
|
| Gtr II
| PM-----------------------------------------------------|
| Q  Q  Q  Q     Q   Q  Q  Q    Q  Q  Q  Q     Q   Q  Q  Q
|-5--4-----7--|--4------5--4--|-5--4-----7--|--4------5--4--|
|-------5-----|------5--------|-------5-----|------5--------|
|-------------|---------------|-------------|---------------|
|-------------|---------------|-------------|---------------|
|-------------|---------------|-------------|---------------|
|-------------|---------------|-------------|---------------|


    Q=160
   4/4
    Gtr I
    E E E E E E E E E E E E  E  E  E  E E E E E E E E E E E E E E E E E
||-----------------------------------------------------------------------|
||o----------------------------------------------------------------------|
||--4-4-4-6-6-6-7-7-7-9-9-9-11-11-11-11-9-9-9-9-9-9-9-9-7-7-7-7-7-7-7-7--|
||-----------------------------------------------------------------------|
||o-2-2-2-4-4-4-5-5-5-7-7-7--9--9--9--9-7-7-7-7-7-7-7-7-5-5-5-5-5-5-5-5--|
||-----------------------------------------------------------------------|
|
|   Gtr II
|   E E E E E E E E E E E E  E  E  E  E E E E E E E E E E E E E E E E E
||-----------------------------------------------------------------------|
||o----------------------------------------------------------------------|
||-----------------------------------------------------------------------|
||--7-7-7-7-7-7-7-7-7-7-7-7--7--7--7--7-0-0-0-0-0-0-0-0-0-0-0-0-0-0-0-0--|
||o-7-7-7-7-7-7-7-7-7-7-7-7--7--7--7--7-0-0-0-0-0-0-0-0-0-0-0-0-0-0-0-0--|
||--7-7-7-7-7-7-7-7-7-7-7-7--7--7--7--7-0-0-0-0-0-0-0-0-0-0-0-0-0-0-0-0--|


  Gtr I
  E E E E E E E E   E E E E  E  E  E  E   E E E E E E E E   E E E E E E E E
|-----------------|---------------------|-----------------|------------------||
|-----------------|---------------------|-----------------|-----------------o||
|-4-4-4-6-6-6-7-7-|-7-9-9-9-11-11-11-11-|-9-9-9-9-9-9-9-9-|-9-9-9-9-9-9-9-9--||
|-----------------|---------------------|-----------------|------------------||
|-2-2-2-4-4-4-5-5-|-5-7-7-7--9--9--9--9-|-7-7-7-7-7-7-7-7-|-7-7-7-7-7-7-7-7-o||
|-----------------|---------------------|-----------------|------------------||
|
| Gtr II
| E E E E E E E E   E E E E  E  E  E  E   E E E E E E E E   E E E E E E E E
|-----------------|---------------------|-----------------|------------------||
|-----------------|---------------------|-----------------|-----------------o||
|-----------------|---------------------|-----------------|------------------||
|-4-4-4-4-4-4-4-4-|-4-4-4-4--4--4--4--4-|-2-2-2-2-2-2-2-2-|-2-2-2-2-2-2-2-2--||
|-4-4-4-4-4-4-4-4-|-4-4-4-4--4--4--4--4-|-2-2-2-2-2-2-2-2-|-2-2-2-2-2-2-2-2-o||
|-4-4-4-4-4-4-4-4-|-4-4-4-4--4--4--4--4-|-2-2-2-2-2-2-2-2-|-2-2-2-2-2-2-2-2--||


    Gtr I
    E E E E E E E E   E E E E E E E E   E E E E E E E E   E E E E E E E E
||------------------|-----------------|-----------------|----------------|
||o-----------------|-----------------|-----------------|----------------|
||----------9-------|---------9-------|---------9-------|---------9------|
||------7-----7---7-|-----7-----7---7-|-----7-----7---7-|-----7-----7---7|
||o-9-9---9-----9---|-9-9---9-----9---|-7-7---7-----7---|-7-7---7-----7--|
||------------------|-----------------|-----------------|----------------|
|
|   Gtr II
|   Q E E S S S E E   Q E E S S S E E   Q E E S S S E E   Q E E S S S E E
||----5---4h5p4---4-|---5---4h5p4---4-|---5---4h5p4---4-|---5---4h5p4---4|
||o-------------5---|-------------5---|-------------5---|-------------5--|
||------------------|-----------------|-----------------|----------------|
||------------------|-----------------|-----------------|----------------|
||o-----------------|-----------------|-----------------|----------------|
||------------------|-----------------|-----------------|----------------|


  Gtr I
  E E E E E E E E   E E E E E E E E   E E E E E E E E   E E E E E E E E  3x
|-----------------|-----------------|-----------------|------------------||
|-----------------|-----------------|-----------------|-----------------o||
|---------9-------|---------9-------|---------9-------|---------9--------||
|-----7-----7---7-|-----7-----7---7-|-----7-----7---7-|-----7-----7---7--||
|-5-5---5-----5---|-5-5---5-----5---|-7-7---7-----7---|-7-7---7-----7---o||
|-----------------|-----------------|-----------------|------------------||
|
|   Gtr II
| Q E E S S S E E   Q E E S S S E E   Q E E S S S E E   Q E E S S S E E  3x
|---5---4h5p4---4-|---5---4h5p4---4-|---5---4h5p4---4-|---5---4h5p4---4--||
|-------------5---|-------------5---|-------------5---|-------------5---o||
|-----------------|-----------------|-----------------|------------------||
|-----------------|-----------------|-----------------|------------------||
|-----------------|-----------------|-----------------|-----------------o||
|-----------------|-----------------|-----------------|------------------||


  Gtr I
  W          +W           W          +W
|----------|------------|----------|--------|
|----------|------------|----------|--------|
|-9--------|-(9)--------|-9--------|-(9)----|
|-7--------|-(7)--------|-7--------|-(7)----|
|-9--------|-(9)--------|-7--------|-(7)----|
|----------|------------|----------|--------|


  Gtr I
  W          +W           W          +W
|----------|------------|----------|--------|
|----------|------------|----------|--------|
|-9--------|-(9)--------|-9--------|-(9)----|
|-7--------|-(7)--------|-9--------|-(9)----|
|-5--------|-(5)--------|-7--------|-(7)----|
|----------|------------|----------|--------|


  Gtr I
  W             +W              W             +W
|-------------|---------------|-------------|---------------|
|-------------|---------------|-------------|---------------|
|-9-----------|-(9)-----------|-9-----------|-(9)-----------|
|-7-----------|-(7)-----------|-7-----------|-(7)-----------|
|-9-----------|-(9)-----------|-7-----------|-(7)-----------|
|-------------|---------------|-------------|---------------|
|
| Gtr II
| PM-----------------------------------------------------|
| Q  Q  Q  Q     Q   Q  Q  Q    Q  Q  Q  Q     Q   Q  Q  Q
|-5--4-----7--|--4------5--4--|-5--4-----7--|--4------5--4--|
|-------5-----|------5--------|-------5-----|------5--------|
|-------------|---------------|-------------|---------------|
|-------------|---------------|-------------|---------------|
|-------------|---------------|-------------|---------------|
|-------------|---------------|-------------|---------------|


  Gtr I
  W             +W              W             +W
|-------------|---------------|-------------|---------------|
|-------------|---------------|-------------|---------------|
|-9-----------|-(9)-----------|-9-----------|-(9)-----------|
|-7-----------|-(7)-----------|-9-----------|-(9)-----------|
|-5-----------|-(5)-----------|-7-----------|-(7)-----------|
|-------------|---------------|-------------|---------------|
|
| Gtr II
| PM-----------------------------------------------------|
| Q  Q  Q  Q     Q   Q  Q  Q    Q  Q  Q  Q     Q   Q  Q  Q
|-5--4-----7--|--4------5--4--|-5--4-----7--|--4------5--4--|
|-------5-----|------5--------|-------5-----|------5--------|
|-------------|---------------|-------------|---------------|
|-------------|---------------|-------------|---------------|
|-------------|---------------|-------------|---------------|
|-------------|---------------|-------------|---------------|


    Gtr I
    E E E E E E E E   E E E E  E  E  E  E   E E E E E E E E   E E E E E E E E
||------------------|---------------------|-----------------|----------------|
||o-----------------|---------------------|-----------------|----------------|
||--4-4-4-6-6-6-7-7-|-7-9-9-9-11-11-11-11-|-9-9-9-9-9-9-9-9-|-7-7-7-7-7-7-7-7|
||------------------|---------------------|-----------------|----------------|
||o-2-2-2-4-4-4-5-5-|-5-7-7-7--9--9--9--9-|-7-7-7-7-7-7-7-7-|-5-5-5-5-5-5-5-5|
||------------------|---------------------|-----------------|----------------|
|
|   Gtr II
|   E E E E E E E E   E E E E  E  E  E  E   E E E E E E E E   E E E E E E E E
||------------------|---------------------|-----------------|----------------|
||o-----------------|---------------------|-----------------|----------------|
||------------------|---------------------|-----------------|----------------|
||--7-7-7-7-7-7-7-7-|-7-7-7-7--7--7--7--7-|-0-0-0-0-0-0-0-0-|-0-0-0-0-0-0-0-0|
||o-7-7-7-7-7-7-7-7-|-7-7-7-7--7--7--7--7-|-0-0-0-0-0-0-0-0-|-0-0-0-0-0-0-0-0|
||--7-7-7-7-7-7-7-7-|-7-7-7-7--7--7--7--7-|-0-0-0-0-0-0-0-0-|-0-0-0-0-0-0-0-0|


  Gtr I
  E E E E E E E E   E E E E  E  E  E  E   E E E E E E E E   E E E E E E E E
|-----------------|---------------------|-----------------|------------------||
|-----------------|---------------------|-----------------|-----------------o||
|-4-4-4-6-6-6-7-7-|-7-9-9-9-11-11-11-11-|-9-9-9-9-9-9-9-9-|-9-9-9-9-9-9-9-9--||
|-----------------|---------------------|-----------------|------------------||
|-2-2-2-4-4-4-5-5-|-5-7-7-7--9--9--9--9-|-7-7-7-7-7-7-7-7-|-7-7-7-7-7-7-7-7-o||
|-----------------|---------------------|-----------------|------------------||
|
| Gtr II
| E E E E E E E E   E E E E  E  E  E  E   E E E E E E E E   E E E E E E E E
|-----------------|---------------------|-----------------|------------------||
|-----------------|---------------------|-----------------|-----------------o||
|-----------------|---------------------|-----------------|------------------||
|-4-4-4-4-4-4-4-4-|-4-4-4-4--4--4--4--4-|-2-2-2-2-2-2-2-2-|-2-2-2-2-2-2-2-2--||
|-4-4-4-4-4-4-4-4-|-4-4-4-4--4--4--4--4-|-2-2-2-2-2-2-2-2-|-2-2-2-2-2-2-2-2-o||
|-4-4-4-4-4-4-4-4-|-4-4-4-4--4--4--4--4-|-2-2-2-2-2-2-2-2-|-2-2-2-2-2-2-2-2--||


  Gtr II
  E E E E E E E E E E E E E E E E E E E E E E E E E E E E  H
|-4h5-4h5-----4h5-4h5-------------4h5-4h5-----4h5-4h5-----12----|
|-5-5-5-5-----5-5-5-5-------------5-5-5-5-----5-5-5-5-----12----|
|---------------------------------------------------------------|
|---------------------------------------------------------------|
|-------------------------0-0-----------------------------------|
|-------------------------0-0-----------------------------------|


    Gtr I
    E  E E  E E E E  E E  E E E E E E E E  E E  E E E E  E E  E E E  H     4x
||------------------------------------------------------------------12-----||
||o-----------------------------------------------------------------12----o||
||-------------------------------------------------------------------------||
||--9-11-9-11-----9-11-9-11-------------9-11-9-11-----9-11-9-11------------||
||o-7--7-7--7-----7--7-7--7-----0-0-----7--7-7--7-----7--7-7--7-----------o||
||--7--7-7--7-----7--7-7--7-----0-0-----7--7-7--7-----7--7-7--7------------||
|
|   Gtr II
|   E  E E  E E E E  E E  E E E E E E E E  E E  E E E E  E E  E E E  H     4x
||--4h=5-4h=5-----4h=5-4h=5-------------4h=5-4h=5-----4h=5-4h=5------------||
||o-5--5-5--5-----5--5-5--5-------------5--5-5--5-----5--5-5--5-----------o||
||-------------------------------------------------------------------------||
||-------------------------------------------------------------------0-----||
||o-----------------------------0-0----------------------------------0----o||
||------------------------------0-0----------------------------------0-----||


    Gtr I
    E E E E E E E E E E E E E E E E E E E E E E E E E E E E E E E E
||---------------------------------------------------------------------||
||o-------------------------------------------------------------------o||
||--4-4-4-6-6-6-9-9-9-9-9-9-9-9-9-9-4-4-4-6-6-6-9-9-9-9-9-9-9----------||
||---------------------------------------------------------------------||
||o-2-2-2-4-4-4-7-7-7-7-7-7-7-7-7-7-2-2-2-4-4-4-7-7-7-7-7-7-7---------o||
||---------------------------------------------------------------------||
|
|   Gtr II
|   E E E E E E E E E E E E E E E E E E E E E E E E E E E E E E E E
||---------------------------------------------------------------------||
||o-------------------------------------------------------------------o||
||--4-4-4-6-6-6-9-9-9-9-9-9-9-9-9-9-4-4-4-6-6-6-9-9-9-9-9-9-9----------||
||---------------------------------------------------------------------||
||o-2-2-2-4-4-4-7-7-7-7-7-7-7-7-7-7-2-2-2-4-4-4-7-7-7-7-7-7-7---------o||
||---------------------------------------------------------------------||


    Gtr I
    E E E E E E E E   E E E E  E  E  E  E   E E E E E E E E   E E E E E E E E
||------------------|---------------------|-----------------|----------------|
||o-----------------|---------------------|-----------------|----------------|
||--4-4-4-6-6-6-7-7-|-7-9-9-9-11-11-11-11-|-9-9-9-9-9-9-9-9-|-7-7-7-7-7-7-7-7|
||------------------|---------------------|-----------------|----------------|
||o-2-2-2-4-4-4-5-5-|-5-7-7-7--9--9--9--9-|-7-7-7-7-7-7-7-7-|-5-5-5-5-5-5-5-5|
||------------------|---------------------|-----------------|----------------|
|
|   Gtr II
|   E E E E E E E E   E E E E  E  E  E  E   E E E E E E E E   E E E E E E E E
||------------------|---------------------|-----------------|----------------|
||o-----------------|---------------------|-----------------|----------------|
||------------------|---------------------|-----------------|----------------|
||--7-7-7-7-7-7-7-7-|-7-7-7-7--7--7--7--7-|-0-0-0-0-0-0-0-0-|-0-0-0-0-0-0-0-0|
||o-7-7-7-7-7-7-7-7-|-7-7-7-7--7--7--7--7-|-0-0-0-0-0-0-0-0-|-0-0-0-0-0-0-0-0|
||--7-7-7-7-7-7-7-7-|-7-7-7-7--7--7--7--7-|-0-0-0-0-0-0-0-0-|-0-0-0-0-0-0-0-0|


  Gtr I
  E E E E E E E E   E E E E  E  E  E  E   E E E E E E E E   E E E E E E E E
|-----------------|---------------------|-----------------|------------------||
|-----------------|---------------------|-----------------|-----------------o||
|-4-4-4-6-6-6-7-7-|-7-9-9-9-11-11-11-11-|-9-9-9-9-9-9-9-9-|-9-9-9-9-9-9-9-9--||
|-----------------|---------------------|-----------------|------------------||
|-2-2-2-4-4-4-5-5-|-5-7-7-7--9--9--9--9-|-7-7-7-7-7-7-7-7-|-7-7-7-7-7-7-7-7-o||
|-----------------|---------------------|-----------------|------------------||
|
| Gtr II
| E E E E E E E E   E E E E  E  E  E  E   E E E E E E E E   E E E E E E E E
|-----------------|---------------------|-----------------|------------------||
|-----------------|---------------------|-----------------|-----------------o||
|-----------------|---------------------|-----------------|------------------||
|-4-4-4-4-4-4-4-4-|-4-4-4-4--4--4--4--4-|-2-2-2-2-2-2-2-2-|-2-2-2-2-2-2-2-2--||
|-4-4-4-4-4-4-4-4-|-4-4-4-4--4--4--4--4-|-2-2-2-2-2-2-2-2-|-2-2-2-2-2-2-2-2-o||
|-4-4-4-4-4-4-4-4-|-4-4-4-4--4--4--4--4-|-2-2-2-2-2-2-2-2-|-2-2-2-2-2-2-2-2--||


    Gtr I
     E  E  E  E  E  E  E  E  E E E E  E  E  E  E E E E E E E E E E E E E E E E E
||---------------------------------------------------------------------------------|
||o--------------------------------------------------------------------------------|
||--14-14-14-13-13-13-11-11-11-9-9-9-11-11-11-11-9-9-9-9-9-9-9-9-7-7-7-7-7-7-7-7---|
||---------------------------------------------------------------------------------|
||o-12-12-12-11-11-11--9--9--9-7-7-7--9--9--9--9-7-7-7-7-7-7-7-7-5-5-5-5-5-5-5-5---|
||---------------------------------------------------------------------------------|
|
|         Gtr II
|    E  E  E  E  E  E  E  E  E E E E  E  E  E  E E E E E E E E E E E E E E E E E
||---------------------------------------------------------------------------------|
||o--------------------------------------------------------------------------------|
||---------------------------------------------------------------------------------|
||---7--7--7-----7--7--7--7--7-7-7----7-----7----0-0-0---0-0-0-0-0-0-0---0---0-----|
||o--7--7--7-----7--7--7--7--7-7-7----7-----7----0-0-0---0-0-0-0-0-0-0---0---0-----|
||---7--7--7-----7--7--7--7--7-7-7----7-----7----0-0-0---0-0-0-0-0-0-0---0---0-----|


  Gtr I
   E  E  E  E  E  E  E  E    E E E E  E  E  E  E
|-------------------------|----------------------|
|-------------------------|----------------------|
|-14-14-14-13-13-13-11-11-|-11-9-9-9-11-11-11-11-|
|-------------------------|----------------------|
|-12-12-12-11-11-11--9--9-|--9-7-7-7--9--9--9--9-|
|-------------------------|----------------------|
|
| Gtr II
|  E  E  E  E  E  E  E  E    E E E E  E  E  E  E
|-------------------------|----------------------|
|-------------------------|----------------------|
|-------------------------|----------------------|
|--4--4--4-----4--4--4--4-|--4-4-4----4-----4----|
|--4--4--4-----4--4--4--4-|--4-4-4----4-----4----|
|--4--4--4-----4--4--4--4-|--4-4-4----4-----4----|


  E E E E E E E E   E E E E E E E E
|-----------------|------------------||
|-----------------|-----------------o||
|-9-9-9-9-9-9-9-9-|-9-9-9-9-9-9-9-9--||
|-----------------|------------------||
|-7-7-7-7-7-7-7-7-|-7-7-7-7-7-7-7-7-o||
|-----------------|------------------||
|
| E E E E E E E E   E E E E E E E E
|-----------------|------------------||
|-----------------|-----------------o||
|-----------------|------------------||
|-2-2-2---2-2-2-2-|-2-2-2---2---2----||
|-2-2-2---2-2-2-2-|-2-2-2---2---2---o||
|-2-2-2---2-2-2-2-|-2-2-2---2---2----||


  Gtr I
  W           +W            W           +W
|-------------------------------------------------------|
|-------------------------------------------------------|
|-9-----------(9)-----------9-----------(9)-------------|
|-7-----------(7)-----------7-----------(7)-------------|
|-7-----------(7)-----------7-----------(7)-------------|
|-------------------------------------------------------|
|
| Gtr II
| PM-----------------------------------------------|
| Q  Q  Q  Q   Q   Q  Q  Q  Q  Q  Q  Q   Q   Q  Q  Q
|-5--4-----7---4------5--4--5--4-----7---4------5--4----|
|-------5----------5--------------5----------5----------|
|-------------------------------------------------------|
|-------------------------------------------------------|
|-------------------------------------------------------|
|-------------------------------------------------------|


  Gtr I
  W           +W            W           +W
|-------------------------------------------------------|
|-------------------------------------------------------|
|-9-----------(9)-----------9-----------(9)-------------|
|-7-----------(7)-----------6-----------(6)-------------|
|-7-----------(7)-----------7-----------(7)-------------|
|-------------------------------------------------------|
|
| Gtr II
| PM-----------------------------------------------|
| Q  Q  Q  Q   Q   Q  Q  Q  Q  Q  Q  Q   Q   Q  Q  Q
|-5--4-----7---4------5--4--5--4-----7---4------5--4----|
|-------5----------5--------------5----------5----------|
|-------------------------------------------------------|
|-------------------------------------------------------|
|-------------------------------------------------------|
|-------------------------------------------------------|


  Gtr I
  W
|------|
|------|
|-9----|
|-7----|
|-9----|
|------|
|
| Gtr II
| W
|-4----|
|-5----|
|------|
|------|
|------|
|------|

| /  slide up
| \  slide down
| h  hammer-on
| p  pull-off
| ~  vibrato
| +  harmonic
| x  Mute note
===============================================================================
comments
We did not receive enough feedback on this tab! Please rate:
print report bad tab
1 2 3 4 5
I want to post or [tab]
guest
You may want to rate the tab now too:
select rating
Please do not post tabs as comments. Select "correction" instead!