Oops, an error
Loading. Please wait.

1000000 Miles Away Tab

4,883 views 3 this week
3 commentsread comments
1 2 3 4 5
worth learning
x 2
Autoscroll
+/-
esc
set tempo
stop
Contributor
Hey! There's an official Ultimate Guitar app which is ideal
for learning songs when you're away from computer. Get the app
WARNING: You are trying to view
                                    content from Ultimate-Guitar.com
                                    in an unauthorized application,
                                    which is prohibited.

                                    Please use an official Ultimate
                                    Guitar Tabs application for iPhone,
                                    iPad or Android to access legitimate
                                    chords, guitar, bass, and drum tabs
                                    from Ultimate-Guitar.com database.

                                    Type "ultimate guitar tabs" in Apple
                                    App Store's or Android Market's
                                    search to find the application.
Tabbed by: Skull Dragon

e-------------------------------------------------------------------|
B-------------------------------------------------------------------|
G-------------------------------------------------------------------|
D-----------------------------------9-------------------------------|
A--10--------------9---9---9---9----7-----------0----9--/-11--------|
E--0---------------10--10--10--10---0-----------0----10-/-12--------|
                                                      slide


e-------------------------------------------------------------------|
B-------------------------------------------------------------------|
G-------------------------------------------------------------------|
D-------------------------------------------------------------------|
A--9------------0---9-----9--/-11--11------------------14--13--12---|
E--10-----------0---10----10-/-12--12------------------15--14--13---|
(bass plays E)


e-------------------------------------------------------------------|
B-------------------------------------------------------------------|
G-------------------------------------------------------------------|
D--------------------------------------------12---------------------|
A--11-\-9-------x\\\\\\\---------11--12--14--11--------12--12--11---|
E--12-\-10------------\\\\\---0--0---0---0---0---------0---0---0----|
               (pick slide)


e--------------------------------------------------------------------|
B--------------------------------------------------------------------|
G--------------------------------------------------------------------|
D--------------12-------------------------------------12-------------|
A--11--12--14--11----9----9---10--11------11--12--14--11---11-12-12\-|
E--0---0---0---0-----10---10--11--12--0---0---0---0---0--------------|


e-------------------------------------------------------------------|
B-------------------------------------------------------------------|
G-------------------------------------------------------------------|
D-------------------------------------------------------------------|
A--9---0--9-----0--9---10--11----9---0--9---0--9----0--9--10--11----|
E--10--0--10----0--10--11--12----10--0--10--0--10---0--10-11--12----|

e------------------------------------------------------------------------|
B------------------------------------------------------------------------|
G------------------------------------------------------------------------|
D---------------12---------------------------------12--------------------|
A--11--12--14---11---------12--12--11--11--12--14--11-------9--10-11-----|
E--0---0---0----0----------0---0---0---0---0---0---0----0-0-10-11-12-0---|
Sailing across my ocean...  Im sailing across my sea...

e---------------------------------------------------------------------------|
B---------------------------------------------------------------------------|
G---------------------------------------------------------------------------|
D--------------12--------12\-\----------------------------------------------|
A--11--12--14--11--------11-\-\--9---0--9---0--9---0--9---0--9--10--11------|
E--0---0---0---0---------0---\-\-10--0--10--0--10--0--10--0--10-11--12-/X\--|
Fill it up with hope....

e-------------------------------------------------------------------|
B-------------------------------------------------------------------|
G-------------------------------------------------------------------|
D---------------12-----------------------------------12-------------|
A--11--12--14---11----------12--12--11---11--12--14--11-------------|
E--0---0---0----0-----------0---0---0----0---0---0---0--------------|
Sailing across my heaven...


                                            (Full)
e--12--12--12--12--12-----------|--15--------------------------------|
B--12--12--12--12--12-----------|------15----------------------------|
G--14--14--13--14--13-----------|----------14^-----12----------------|
D----------------------14--12---|----------------------14------------|
A-------------------------------|--------------------------12--------|
E-------------------------------|------------------------------------|
      First time                    Second time

e---------------------------------------------------------------------------|
B---------------------------------------------------------------------------|
G---------------------------------------------------------------------------|
D--------------12-------------------12\-\-----------------------------------|
A--11--12--14--11-------------------11-\-\---9--0-9--0--9---0--9--10--11----|
E--0---0---0---0--------------------0-----\--10-0-10-0--10--0--10-11--12----|
...find the voice I've been hearing...   Forever couldnt be too far.       For

e-------------------------------------------------------------------|
B-------------------------------------------------------------------|
G-------------------------------------------------------------------|
D-------------------------------------------------------------------|
A--9--0-9---0-9---0-9--10-11----------------------------------------|
E--10-0-10--0-10--0-10-11-12--/X\-----------------------------------|
   ever couldn't be too far   yeah

e-----------0------------------0--------------0-------------|
B---------------1------------------1-------1----------------|
G--------2------------------2---------2---------------------|
D-----2-----------------2-----------------------------------|
A--0--------------------------------------------------------|
E--------------------3--------------------------------------|
   Oh..........................it couldn't be too

e-------------------------------------------------------------------|
B-------------------------------------------------------------------|
G-------------------------------------------------------------------|
D--------------12---------------------------------------------------|
A--11--12--14--11------------------------------12--12--11-----------|
E--0---0---0---0-------------------------------0---0---0------------|
(ending 1)


e---------------------------------------------------------------------------|
B---------------------------------------------------------------------------|
G---------------------------------------------------------------------------|
D------------------------------------------------------12-------------------|
A--11--12--14--11-12-p11-12-p11-12-p11-12-p11--11-12-14--11-9--9--10-11-----|
E--0---0---0---0--0------0------0------0-------0--0--0---0--10-10-11-12-/x\-|
(ending 2)              p=pulloff                                           pick slide

e---------------------------||----------------------------------------|
B---------------------------||----------------------------------------|
G---------------------------||-------0-----0-----------0-------0------|
D--------------12-----------||----------------0-----------------------|
A--11--12--14--11-----------||-----------------------------0----------|
E--0---0---0---0---x\\\-----||-0--2-----3--------3--3-----------------|
(ending 3)       pick slide    Loneliness          my..........


e---0-----0---------------0-------------------------------------------|
B---0----------0-------------0----------------------------------------|
G---0-------------0-------------0--------0--------------0-------------|
D---2------------------------------2----------------------------------|
A---3-----------------3---------------3-------------------------------|
E--------------------------------------------0-----2---------3--------|
     friend...........                   I'll think about.....


e----------------------------------0-----------0---------------------|
B--0-------------------------------0----------------3----------------|
G-----0--------------0-------0-----0---------------------0-----------|
D--------0-------------------------2---------------------------------|
A----------------0-------0---------3---------------------------------|
E------------3-------------------------------------------------------|
      you        every              day        yeah


e------------------------------------------------------0-----0--------|
B------------------------------------------------------0---------0----|
G-------0--------0--------0----------------0-------0---0------------0-|
D----------------------------0-------------------------2--------------|
A-------------------------------0-----0--------0-------3--------------|
E--0--------2--------3-------------3----------------------------------|
sail        into                into       the light....    oh yeah


e--------0------------------------------------2---------------------|
B-----------0-------------------------------------------------------|
G--------------0-----------------------0--2-------------------------|
D------------------2-------------0--1-------------------------------|
A--3--------------------0--1--2-------------------------------------|
E-------------------------------------------------------------------|
                                                   Lord, a million miles


e---------------------------------------------------------------------------|
B---------------------------------------------------------------------------|
G---------------------------------------------------------------------------|
D-----------------12------------------------------------12------------------|
A--------11-12-14-11---12-p11--12-p11-12-p11---11-12-14-11---9---9--10-11---|
E--12\---0--0--0--0----0-------0------0--------0--0--0--0----10--10-11-12---|
   away.............                                          a million miles away...


e--------------------------------------------------------------------|
B-----------------12--12--12--12--12---------------------------------|
G-----------------14--14--13--14--13---------------------------------|
D-----------12------------------------14~~-------------12------------|
A--11-12-14-11--------------------------------11-12-14-11------------|
E--0--0--0--0---------------------------------0--0--0--0--------x\\--|
   Ohh...........                                            pick slide

Solo:

       6           6           6        3      4
  |---------| |---------| |---------| |---| |------------------------|
e--------------------------------------------------------------------|
B--------------------------------------------------------------------|
G--------------------------------------------------------------------|
D-0-2-0-2-0-2-0-2-0-2-0-2-0-2-0-2-0-2-0-2-0-2-0-2-0------------------|
A--------------------------------------------------------------------|
E--------------------------------------------------------------------|

         8               8
  |-------------| |-------------| 1/2--------------------------------|
e--------------------------------------------------------------------|
B--------------------------------------------------------------------|
G--------------------------------------------------------------------|
D----------------------------------2^--------------------------------|
A-2-0-2-0-2-0-2-0-2-0-2-0-2-0-2-0------------------------------------|
E--------------------------------------------------------------------|


bend:   1/2     1 1/2      1              1/2            1/2
e-------------------------------12-------------12-------------------|
B------------------------15^~------15-12----------15-12-------------|
G----------------------------------------14^~-----------14^~--------|
D-(2)--2^-----------------------------------------------------------|
A-------------------------------------------------------------------|
E---------------3^--------------------------------------------------|


             1/2              1
e--12--------------12--------------12----12-------------------------|
B-----15-12-----------15-12-15^~------15----------------------------|
G-----------14^-----------------------------------------------------|
D-------------------------------------------------------------------|
A-------------------------------------------------------------------|
E-------------------------------------------------------------------|

    1/2             1                          1
e--------12-------17^--17--12-15-12-14-12-12------12----------------|
B--15^~-----15-12----------------------------15^-----15-------------|
G-------------------------------------------------------------------|
D-------------------------------------------------------------------|
A-------------------------------------------------------------------|
E-------------------------------------------------------------------|

                                               1
e-------------------------------------------------------------------|
B--12----12-15-12----12-15-12-14-12-12-12-12------------------------|
G-----14----------14-------------------------14^--12----------------|
D----------------------------------------------------14~~~~~--------|
A-------------------------------------------------------------------|
E-------------------------------------------------------------------|

  slide                                        1
e-------------------------------------------------12----------------|
B----------------------------------------------------12-15-12----12-|
G-----------------11----------12-12-12h14-14-14^--------------14----|
D--x/0------12-14----14-12-14---------------------------------------|
A-------/14---------------------------------------------------------|
E-------------------------------------------------------------------|


e-------------------------------------------------------------------|
B--15-12-14-12----12-14---12----------------------------------------|
G--------------13------------14-12----14-12-14-14~~~~~--------------|
D-------------------------------------------------------------------|
A-------------------------------------------------------------------|
E-------------------------------------------------------------------|

       1/2  1/2        1
e-11--------------------------------------------12------------------|
B-----14^~~~~^----12-------------------------12---------------------|
G--------------------14^--p12-------------15------------------------|
D-----------------------------14~~~~~--x/---------------------------|
A-------------------------------------------------------------------|
E-------------------------------------------------------------------|

                                                                              1
e--------------------------12-------------12---12-----------12--------------|
B--15-12----------------12----15-12----12---12-----------12----15-12-----12-|
G--------15-14-12----14-------------15---15-----15-12-15-------------14^----|
D-----------------14--------------------------------------------------------|
A---------------------------------------------------------------------------|
E---------------------------------------------------------------------------|


e-12------------------17-15-------------17-15-------------17-15-------------|
B----15-12-15-12-15-12-------17-15-17-15------17-15-17-15-------17-15-15-17-|
G---------------------------------------------------------------------------|
D---------------------------------------------------------------------------|
A---------------------------------------------------------------------------|
E---------------------------------------------------------------------------|

                           1/2             1   1
e----17------------15-17^-15----15-19^-19^--16-17-16---17---15-16-15-15-17--|
B17--17-17-15-17-17----------17----------------------17----17---------------|
G---------------------------------------------------------------------------|
D---------------------------------------------------------------------------|
A---------------------------------------------------------------------------|
E---------------------------------------------------------------------------|

                                   1
e--------12---------------------------------------------------------|
B--15-12----15-12-15-12-15-12---------------------------------------|
G-----------------------------14-14^~-------------------------------|
D-------------------------------------------------------------------|
A-------------------------------------------------------------------|
E-------------------------------------------------------------------|

All full bends:
e---17^--17^--17^--17^--17^--17^--17^--15-----17^---15-17^-15---------|
B-----------------------------------------17~-----------------17~-----|
G-----------------------------------------------------------------x\--|
D---------------------------------------------------------------------|
A---------------------------------------------------------------------|
E---------------------------------------------------------------------|

                            1   1          1          1              1
e-----------------------------12-12-----------------12-12-12----------------|
B-12--12-12-------------------12-12-----------------12-13-12--14^--12-------|
G-12--12-12------12--14^-14^--------14^--14-12-14^---------------------14~--|
D------------14-------------------------------------------------------------|
A---------------------------------------------------------------------------|
E---------------------------------------------------------------------------|


e-------------------------------------------------------------------|
B-------------------------------------------------------------------|
G-------------------------------------------------------------------|
D----------------12------------------------------------12-----------|
A-------11-12-14-11---12-p11--12-p11-12-p11---11-12-14-11-----------|
E--12\--0--0--0--0----0-------0------0--------0--0--0--0------------|


        1
e-------------------------------------------------------------------|
B--15---------------------------------------------------------------|
G-----14^--12-------------------------------------------------------|
D--------------14-12--------------12--------------------------------|
A--------------------14--11-12-14-11--------------------------------|
E------------------------0--0--0--0---------------------------------|

                                             1
e-------------------------------------------------------------------|
B-------------------------------------------------------------------|
G-------------------------------------------------------------------|
D-----------------------------------12------------------------------|
A--12-p11--12-p11-12-p11---11-12-14-11------------------------------|
E--0-------0------0--------0--0--0--0----0--3^--0-------------------|

e-------------------------------------------------------------------|
B-------------------------------------------------------------------|
G-------------------------------------------------------------------|
D--6-----5-----4-----5--6----6--5--4--------------------------------|
A--7-----6-----5-----6--7----7--6--5--------------------------------|
E--0--0-----0-----0--------0----------7-----------------------------|
Play 4 times

     1        1/2
e-------------------------------------------------------------------|
B--13^-------12^---------12-----------------------------------------|
G-------------------------------------------------------------------|
D-------------------------------------------------------------------|
A-------------------------------------------------------------------|
E-------------------------------------------------------------------|
Fill1


    ~~~~ ~~~~~  ~~~~~~~~~~~~
e-------------------------------------------------------------------|
B---15---14----13-------(13\)---------------------------------------|
G---16---15----14-------(14\)---------------------------------------|
D-------------------------------------------------------------------|
A-------------------------------------------------------------------|
E-------------------------------------------------------------------|
Fill2

     1                       1~        1              1
e--15^--15--12-15-12----12------------------------------------------|
B--------------------15----15^~-----------12-12-15------------------|
G------------------------------------14^------------14^--14--12~----|
D-------------------------------------------------------------------|
A-------------------------------------------------------------------|
E-------------------------------------------------------------------|
riff1

                      1/2  1/2                             1/2 1/2
e-------------------------------------------------------------------------|
B-------------------------------------------------------------------------|
G-------------------------------------------------------------------------|
D--6-----5------4---------------------6-----5-----4-----------------------|
A--7-----6------5---------------------7-----6-----5-----------------------|
E--0--0------0-----0--5^---5^---3--0--0--0-----0-----0--0--5^---5---3--0--|
2nd guitar part... Play fill1 and/or fill2 before riff1
Then play this 2nd guitar part on top of fill/riff1


full bends:
e--17^-17-17-17--17-17-17--17--17--17-------------------------------|
B----------------------------------------17~\-----------------------|
G-------------------------------------------------------------------|
D-------------------------------------------------------------------|
A-------------------------------------------------------------------|
E-------------------------------------------------------------------|

e-------------------------------------------------------------------|
B--12-15-12----------12---------------------------------------------|
G-----------15-14-15-----15-14-12-----------------------------------|
D---------------------------------14~~~-----------------------------|
A-------------------------------------------------------------------|
E-------------------------------------------------------------------|

full bends:
e-------------------------------------------------------------------|
B------12-15------12-15------12-15-----12-15------12-15-12----------|
G--14^--------14^--------14^-------14^--------14^-------------------|
D-------------------------------------------------------------------|
A-------------------------------------------------------------------|
E-------------------------------------------------------------------|

     1                   (bend another 1/2)
e---------------------15^~~~^------------------12~-\----------------|
B--15^~--15\----------------------------------------\---------------|
G-------------------------------------------------------------------|
D-------------------------------------------------------------------|
A-------------------------------------------------------------------|
E-------------------------------------------------------------------|

      1                                 1
e----------------------------------------------17^--17^--17^--17^---|
B-----------------12------------------15^-\-------------------------|
G---14^--12~---14----12~~---14-14-12-------\------------------------|
D-------------------------------------------------------------------|
A-------------------------------------------------------------------|
E-------------------------------------------------------------------|
comments
We did not receive enough feedback on this tab! Please rate:
print report bad tab
1 2 3 4 5
3 comments total.
0 reply
lefthandguitar wrote on January 18 2009, 07:47 pm

this sucked sorry

0 reply
lefthandguitar wrote on January 18 2009, 07:49 pm

the solo was fine actually but rest of it sucked

0 reply
Chewy Biscuits wrote on August 4 2009, 03:49 pm

i thoght it was all actually very accurate

I want to post or [tab]
guest
You may want to rate the tab now too:
select rating
Please do not post tabs as comments. Select "correction" instead!