Oops, an error
Loading. Please wait.

Book Of Shadows Tab

10,999 views 18 this week
no commentswrite comment
1 2 3 4 5
excellent!
x 2
add to favorites launch autoscroll
font size
0
reset
Autoscroll
+/-
esc
set tempo
stop
Contributor
WARNING: You are trying to view
                                    content from Ultimate-Guitar.com
                                    in an unauthorized application,
                                    which is prohibited.

                                    Please use an official Ultimate
                                    Guitar Tabs application for iPhone,
                                    iPad or Android to access legitimate
                                    chords, guitar, bass, and drum tabs
                                    from Ultimate-Guitar.com database.

                                    Type "ultimate guitar tabs" in Apple
                                    App Store's or Android Market's
                                    search to find the application.
Between Heaven and Hell

Tabbed by: Skull Dragon

     G                   Em            F(sus2+maj7)
e-I----------3-----3-x-3-----0-----0-I---------0-----0-0-0-----0-----0--|I
b-I----------3-----3-x-3-----0-----0-I---------0-----0-0-0-----0-----0--|I
g-I----------0-----0-x-0-----0-----0-I---------2-----2-2-2-----2-----2--|I
d-I----------0-----0-x-0-----2-----2-I---------3-----3-3-3-----3-----3--|I
A-I----------------------------------I----------------------------------|I
E-I--3---3---------------0-----------I-1---1---------------1------------|I

     G                   Em            *     F(...)    p.m.    Cadd9
e-I----------3-----3-x-3-----0-----0-I-x-0-0h1---1-0---0-0-0---0---0-0---0--|I
b-I----------3-----3-x-3-----0-----0-I-x-0-0h1---1-0---0-0-0---1---1-1---1--|I
g-I----------0-----0-x-0-----0-----0-I-x-0---2---2-2---2-2-2---0---0-0---0--|I
d-I----------0-----0-x-0-----2-----2-I-x-2---3---3-3---3-3-3-0h2---2-0---0--|I
A-I----------------------------------I-------------3---------------3-3---3--|I
E-I--3---3---------------0-----------I-1------------------------------------|I

Chorus
     G       Dsus4       Cadd9                     C  (let ring)
e-I--3-------3---3-3-x---3-----------I-----I-----I-0----------------------|I
b-I--3-------3---3-3-x---3-----------I-----I-----I-1----------------------|I
g-I--0-------2---2-2-x---0-----------I--%--I--%--I-0----------------------|I
d-I--0-------0---0-0-x---2-----------I-----I-----I-2----------------------|I
A-I--2---2-3-------------3-----3-2-0-I-----I-----I-3----------------------|I
E-I--3-------------------------------I-----I-----I-3----------------------|I
                                      repeat

Outro, Guitar 1:
                                          Gsus4 G
e-I---------------------------I-----I-----I--3-----------------------|I
b-I---------------------------I-----I-----I--1---0-------------------|I
g-I-----0-----0-------0-----0-I--%--I--%--I--0-------0---------------|I
d-I------0-----0-------0---0--I-----I-----I--0-----------------------|I
A-I-------0-------------0h2---I-----I-----I--2-----------------------|I
E-I--1-------2----3-----------I-----I-----I--3-----------------------|I
                                            let ring
Guitar 2:
e-I------------------------------------I------------------------------------|I
b-I------------------------------------I------------------------------------|I
g-I------------------------------------I------------------------------------|I
d-I----------9---12~~~~~~~~~--9-10-----I---10bu12--10-----------------------|~~~~~~~~~~~~~~~~~~~~-I
A-I------------------------------------I------------------------------------|I
E-I------------------------------------I------------------------------------|I

e-I-------------------------------------I-----------------------------------|I
b-I-------------------------------------I-----------------------------------|I
g-I-------------------------------------I-----------------------------------|I
d-I----------9---12~~~~~~~~~~~~~--10--9-I--10----9--------------------------|I
A-I-------------------------------------I--------------10~~~~~~~~~~~~sl.~---|I
E-I-------------------------------------I-----------------------------------|I




Sold My Soul

Transcribed by : Dennis Franke

E-||------------------|-----------------------------||-----------------|
B-||*-----------------|----------------0-0-----0-0-*||-----------------|
G-||--------0-----0---|-------0----4p6-6-6-4p6-6-6--||-----0--0-0------|
D-||------4---------4-|-----7---7--7---7-7-7---7-7--||-----4--4-4------|
A-||*---2-------2-----|-2/5------------------------*||-----2--2-2------|
E-||--0-------3-------|-----------------------------||-0-0-0--0-0--3-3-|

E|--------|-------------------------------|------------------------|----|
B|--------|-------------------0-0-----0-0-|------------------------|----|
G|-0--0-0-|-------0--0-0--4p6-6-6-4p6-6-6-|-----0--0-0------0--0-0-|----|
D|-4--4-4-|-------7--7-7--7---7-7-7---7-7-|-----4--4-4------4--4-4-|----|
A|-2--2-2-|-2/5-5-5--5-5------------------|-----2--2-2------2--2-2-|-2--|
E|-3--3-3-|-------------------------------|-0-0-0--0-0--3-3-3--3-3-|----|

E|-----------------------------|------------------------|--------------|
B|-----------------0-0-----0-0-|------------------------|--------------|
G|-----0--0-0--4p6-6-6-4p6-6-6-|-----0--0-0------0--0-0-|-------0--0-0-|
D|-----7--7-7--7---7-7-7---7-7-|-----4--4-4------4--4-4-|-------7--7-7-|
A|-5-5-5--5-5------------------|-----2--2-2------2--2-2-|-2/5-5-5--5-5-|
E|-----------------------------|-0-0-0--0-0--3-3-3--3-3-|--------------|

E|------------------|------------------------|--------------------------|
B|------0-0-----0-0-|------------------------|-------------------0-0----|
G|--4p6-6-6-4p6-6-6-|-----0--0-0------0--0-0-|-------0--0-0--4p6-6-6-4--|p
D|--7---7-7-7---7-7-|-----4--4-4------4--4-4-|-------7--7-7--7---7-7-7--|
A|------------------|-----2--2-2------2--2-2-|-2/5-5-5--5-5-------------|
E|------------------|-0-0-0--0-0--3-3-3--3-3-|--------------------------|

E|-------|-0------|---------|-0-----------||-||-------0--0-0-|---------|
B|---0-0-|-0------|---------|-0----------*||-||*------0--0-0-|---------|
G|-6-6-6-|-0------|---------|-0---0---0---||-||-------0--0-0-|---------|
D|---7-7-|-2------|---------|-2-----------||-||-------2--2-2-|-------0-|
A|-------|-3------|-3-2-----|-2----------*||-||*------2--2-2-|-------2-|
E|-------|--------|---------|-0-3---2-----||-||--0-0--0--0-0-|-3-3-3-3-|

E|-3--3-|------0--0-0-|----------||-----||--------------------|--------|
B|-3--3-|------2--2-2-|---------*||-----||*-------------------|--------|
G|-0--0-|------2--2-2-|---0---0--||-----||--------------------|--------|
D|-0--0-|------2--2-2-|----------||-----||--------------------|--------|
A|-2--2-|-0-0--0--0-0-|---------*||-----||*-------------------|--------|
E|-3--3-|-------------|-3---2----||-----||--5--5p3-5---b2--r3-|-5p3-5--|

E|---------|---|--------------------------------------||---------------|
B|---------|---|--------------------12/10--10/8--8/7-*||---------------|
G|---------|---|-7/9--9/11---11/12--------------------||---------------|
D|---------|-2-|---------------------9/-7---7/5--5/3--||---------------|
A|---------|-2-|-5/7--7/-9----9/11-------------------*||---------------|
E|--b2--r3-|-0-|--------------------------------------||-5p3-5---b2--r-|

E|----||-----------------|-----------------------------||-|------------|
B|----||*----------------|----------------0-0-----0-0-*||-|------------|
G|----||-------0-----0---|-------0----4p6-6-6-4p6-6-6--||-|------------|
D|-7--||-----4---------4-|-----7---7--7---7-7-7---7-7--||-|----------5-|
A|-7--||*--2-------2-----|-2/5------------------------*||-|-2p3--5/7---|
E|-5--||-0-------3-------|-----------------------------||-|------------|

E|---------------------------------------|---------------------|-------|
B|---------------------------------------|---------------------|-------|
G|------7-9--2b4--r-0--------------------|---------------------|-------|
D|--7/9----------------2p0-2--0p2-0------|-4b5--4b5--4b5--r----|-------|
A|----------------------------------2-3--|-----------------7-5-|-------|
E|---------------------------------------|---------------------|-5-6-7-|

Wah

E---------------------------|-------------------10-10--------------|----|
B---------------------------|-------7-8-10b12----------r10--8b9----|----|
G---------------------------|-9~--9------------------------------9-|-4--|p
D---------------------------|--------------------------------------|----|
A-----------5-6-7-7-7-8-9-9-|--------------------------------------|----|
E-7-5-6-7-7-----------------|--------------------------------------|----|

E|---------------------------------------------------------------------|
B|---------------------------------------------------------------------|
G|-5-4-5-4-5-4-5-4-5p7-5-7-5-7-5-7-5-7p9-7-9-7-9-7-9-7--9p11-9-11-9-11-|
D|---------------------------------------------------------------------|
A|---------------------------------------------------------------------|
E|---------------------------------------------------------------------|

E|---------------------------------------------------------------------|
B|---------7p8-7-8-7-8p10-8-10-8-10p12-10-12-10-12p13-12-13-12---15b17-|
G|-9-11-9--------------------------------------------------------------|
D|---------------------------------------------------------------------|
A|---------------------------------------------------------------------|
E|---------------------------------------------------------------------|

E-|--14b15--14-14--r-14--r-14--r-12-----|------------------------------|
B-|--------------------------------15b17|------12-15-------12-15-------|
G-|-------------------------------------|14b16-------14b16-------14b16-|
D-|-------------------------------------|------------------------------|
A-|-------------------------------------|------------------------------|
E-|-------------------------------------|------------------------------|

E|-------------------------------15-12---------------------------------|
B|-12-15-------12-15------12-15--------15-12------15-12----------------|
G|-------14b16------14b16--------------------14-12------14-12-------14-|
D|------------------------------------------------------------14-12----|
A|---------------------------------------------------------------------|
E|---------------------------------------------------------------------|

E|---------------------------|-----------------------------15-15-------|
B|--------------14b16--r12---|12--14-12-14b16--r-12--15b17-------14b16-|
G|-12-----------14b16--r12---|12--14-12-14b16--r-12--------------14b16-|
D|----14-12----------------14|-----------------------------------------|
A|----------14---------------|-----------------------------------------|
E|---------------------------|-----------------------------------------|

                                           chorus:
E|--------------|-2--0p2-0------------------|--|
B|--r-----------|----------4-0--------------|--|
G|--r-12b13-----|--------------2------------|--|
D|-----------14~|----------------4-2-1------|--|
A|--------------|----------------------2~---|--|
E|--------------|---------------------------|--|




Road Back Home

Tabbed By: Matt Pavlichko

Tuning:  Standard

Rhythm guitar chords: in place of piano part..

A, Em, G, D

SLIDE PART:

|------9---7---7--/---5------------------/----------------------------|
|--10-------------/-s-----5--7---5-------/----------------------------|
|-s---------------/---------s-------6--7-/-6-6--9--7------------------|
|-----------------/-------------------s--/-----s-----7--9-------------|
|-----------------/----------------------/-------------s--------------|
|-----------------/----------------------/----------------------------|
                what you give is what you get, but you…

|-------------/-----------------------------/-------------------------|
|-------7-(5)-/----------------3------2-----/---------------3---2-----|
|-------7-(6)-/--0----0---2------2------2---/--0----0----2--2---2-----|
|-7----s------/---0----0--2--------2------2-/---0-----0--2--2---2-----|
|-------------/-----------0-----------------/------------0------0-----|
|-------------/-3---2-----------------------/-3---2-------------------|
just, a touch away                                        chorus

|-----------------------2-----------/---------0---------/-------------|
|---3-------2------3------3-----3---/------3----3-------/-------------|
|-----4-------4------4------4-----4-/---2---------2-----/--2----------|
|---------4-----4-------------4-----/-0-----------------/--2----------|
|-2---------------------------------/-------------------/--0----------|
|-----------------------------------/---------------0-3-/-------------|

|-----/-----/--------------/-----------------------------------|
|-----/--3--/-------3------/-----------------------------------|
|-0---/--2--/-------2------/-----------------------------------|
|-0---/--0--/---2---0------/-----------------------------------|
|-x---/-----/---2----------/-----------------------------------|
|-3---/-----/---0------0-3-/-----------------------------------|


SOLO:
|----------/--------------------------/--------------------------|
|----------/-----------------17-17-17-/-17--15--17--17-----------|
|----14----/--14-16-16---16-----------/---p-------bend-----------|
|-16----16-/----------bend------------/--------------------------|
|----------/--------------------------/--------------------------|
|----------/--------------------------/--------------------------|

|----------/----------------------------------------------------------|
|----------/----------------------------------------------------------|
|-2-----2--/-4-----4--4-2---4-2-0-4-2-0-------------------------------|
|--bend----/---bend----p-----p-p---p--p-4-2-0-4-2-0-------------------|
|----------/-----------------------------p-p---p-p--4-2-0-4-2-0-------|
|----------/-----------------------------------------p-p---p-p--------|

|-------------/------------------------/-----------------------|
|-------------/---bend-----bend--------/-----------------------|
|-------------/-16--16---16--16-14-16--/-----------------------|
|-------------/------------------------/-----------------------|
|--p-p---p-p--/------------------------/-----------------------|
|-3-2-0-3-2-0-/------------------------/-----------------------|

                harmony lead:
|--------------------------------------/-----------------------|
|--------------------------------------/-----------------------|
|---------------12---12---12-12-11-12--/-----------------------|
|-----------------bend-------bend------/-----------------------|
|--------------------------------------/-----------------------|
|--------------------------------------/-----------------------|

|--------------------------------------/----17--14--14------------------|
|-14-15---14--------------------17-----/-17---17--17--17----------------|
|---h---------16---16----16--14---bend-/--bend----------16-16-14--14-16-|
|---------------------bend-------------/------------------bend--16------|
|--------------------------------------/--------------------------------|
|--------------------------------------/--------------------------------|

|----/-17-14----------------------------------------------------------|
|----/------17-14-----17-14-------------------------------bend--------|
|-14-/-----------16-14-------16-14------16-14------------16--16-14----|
|----/----------------------------16-14-------16-14---14-----------16-|
|----/----------------------------------------------16----------------|
|----/----------------------------------------------------------------|

           OUTRO SOLO:
|--------/--12-------12--12--/-12-----12-------h---------------|
|--------/-----12----12------/---12---12--12-10--12------------|
|-14-16--/------bend---------/----bend------bend---------------|
|--------/------hold---------/---------------------------------|
|--------/-------------------/---------------------------------|
|--------/-------------------/---------------------------------|

|------------------------------/-17---17--17-17-17--------------------|
|-10---15--15-14---------------/--------bend------bend----------------|
|----------------16--16-14--16-/--------------------------------------|
|------------------bend--------/--------------------------------------|
|------------------------------/--------------------------------------|
|------------------------------/--------------------------------------|

|-19--19-19-----19--/-17--19--17--17--17--14-/-14-14---bend--14-------|
|---bend---bend-----/---h---------------s----/-------17----17---14-15-|
|-------------------/------------------------/--------------------h---|
|-------------------/------------------------/------------------------|
|-------------------/------------------------/------------------------|
|-------------------/------------------------/------------------------|

                        etc, repeat
|-------------------/-------------------------------------------------|
|-14--15--14--------/-14-17-14----14-17-14----14-17-14----------------|
|----h-------16--14-/----------17----------17----------17-------------|
|-------------------/-------------------------------------------------|
|-------------------/-------------------------------------------------|
|-------------------/-------------------------------------------------|




Way Beyond Empty

Tabbed By: Matt Pavlichko

Tuning: Standard

Main Riff: figure out the rhythm, the cords are right…

|--3--2---0---2--3-----\------------\----------------------------|
|--3--3---3---3--3-----\-------3----\----------------------------|
|--2--2---2---2--0-----\-------0----\----------------------------|
|--0-------------------\----0--0----\----------------------------|
|----------------------\------------\----------------------------|
|-------------------2--\--3---------\----------------------------|
would you turn your back on me, ……… etc.

|--3--2---0---2--\------0----/--------3-------2--/--0------------|
|--3--3---3---3--\------3----/--------3-------3--/--3------------|
|--2--2---2---2--\--0---0----/---0----0-------0--/--0------------|
|--0-------------\--x---x----/---0---------------/-----------0---|
|----------------\--2---2----/---x---------------/-------0-2-----|
|----------------\--0---0----/---3---------------/--------h------|
way beyond empty….
   D                D/F#           G
|-2---0--2---0--/--------2---0--/--------3--2--0-----------------|
|-3---3--3---3--/--------3---3--/--------3--3--3-----------------|
|-2---2--2---2--/--------2---2--/--------0--0--0-----------------|
|-0---0--0---0--/---0----0------/---0---------------------0------|
|---------------/---x-----------/---x---------------0--2---------|
|---------------/---2-----------/---3-----------------h----------|

repeat chords here, then play this fill in the G measure
|-----------------------\----------------------------------------|
|----3----------3-------\-----3----------3-----------------------|
|------0----------0-----\-------0----------0---------------------|
|--5------5--4-------4--\---2------2---0------0------------------|
|-----------------------\----------------------------------------|
|-----------------------\----------------------------------------|

|---------------------0----/---------------------\-----------2-|
|---------------------2----/---------------------\-----------3-|
|----0-------0--------0----/----0------0------0--\------0----2-|
|------0--------0-----2----/------0------0-------\--0-----0--0-|
|--1-----3------------0----/--1-----3------0-----\-------------|
|--------------------------/---------------------\----3--------|

SOLO:
|------------/---------/---------------/------/----------------|
|------------/----s----/--------10-----/------/-------------7-8|
|-------7-9--/--9--11--/--9--------9-9-/--7---/--------7--9----|
|-7--9-------/---------/---------------/------/--7--9----------|
|------------/---------/---------------/------/----------------|
|------------/---------/---------------/------/----------------|

|----------\-------------------\-------------------------------|
|-7---7-8--\-10--10-10-11------\-------------------------------|
|----------\---------------9-9-\--7----------------------------|
|----------\-------------------\-----7--9----------------------|
|----------\-------------------\-------h-----------------------|
|----------\-------------------\-------------------------------|

|----------------------------------------------------------------|
|----------------------------------------------------------------|
|-14-12-12---12-11-11---11-9-9---9-7-7---------------------------|
|----------------------------------------------------------------|
|----------------------------------------------------------------|
|----------------------------------------------------------------|

|----------------------------------\---------------------------|
|-12-10-10---10-8-8---8-7-7----7-8-\-10----10-8-7-8------------|
|----------------------------------\---------------------------|
|----------------------------------\---------------------------|
|----------------------------------\---------------------------|
|----------------------------------\---------------------------|

|-------------------/------------------------------------------|
|-8---10------------/------------------------------------------|
|----------9-9-7-9--/--7---------------------------------------|
|-------------------/------------------------------------------|
|-------------------/------------------------------------------|
|-------------------/------------------------------------------|




Throwin it All away

Tabbed By: Matt Pavlichko

Tuning: Standard

INTRO:
rake
|-0------------------------/--0--------------------------------|
|--3-----------------------/--1--------------------------------|
|---0----------0-----------/--0---------0----------------------|
|-------2--2--4----4--2--0-/--2---2--4-----4--2-0--------------|
|-------2----s-------s-----/--3-----s--------s-----------------|
|-------0------------------/-----------------------------------|

PRE CHORUS:
|--2---3--2---0---/--0----0---0-/------------------------------|
|--3---3--3---3---/--1----1---1-/------------------------------|
|--2---2--2---2---/--0----0---0-/------------------------------|
|--0--------------/--2----0---2-/------------------------------|
|-----------------/--3----3---3-/------------------------------|
|-----------------/-------------/------------------------------|

CHORUS:
  G         D       Am       C         G  D    C
|-------------2--/-------0------0---/--------/-----------------|
|-----3-------3--/-------1------1---/--------/-----------------|
|-----0----2--2--/-------2------0---/--------/-----------------|
|--0--0----0--0--/---2---2---2--2---/--------/-----------------|
|--x--x----------/---0---0---3--3---/--------/-----------------|
|--3--3----------/------------------/--------/-----------------|

SOLO:
|--------------/-------------------------/-----------------------|
|--------------/-------5-7-7-----7-7-7-5-/-----------------------|
|--------------/--7---------bend---------/-7--5------5--5--7-----|
|--------------/---bend------------------/---s------------s------|
|--------------/-------------------------/-----------------------|
|--0-dive down-/-------------------------/-----------------------|

|----------------/----------------------------------------------------|
|----------------/----------------------------------------------------|
|--4-------------/----------------------------------------------------|
|----------------/----------------------------------------------------|
|----7--7-7-7--5-/--5--7-7------------------12-11-10-12-11-10---------|
|-----bend-------/---------12-11-10-12-11-10--------------------------|
continued from last measure…
|--------------------------------------/--------12-14-14-12-----------|
|--------------------------------------/-15---15------------15--------|
|--------------------------------------/--bend----------------bend----|
|--------------------14-13-12-14-13-12-/------------------------------|
|-14-13-12--14-13-12-------------------/------------------------------|
|--------------------------------------/------------------------------|

|-----------12-------------------------------/--------------------------|
|-15-15--------15--12--12-15--12----12-------/-7-7-5-7-5---10----8-7----|
|------bend-------p--14------p---14----etc.--/--------------------------|
|--------------------------------------------/--------------------------|
|--------------------------------------------/--------------------------|
|--------------------------------------------/--------------------------|

|--------------------------------------------------------------|
|---7-8--7-----------------------------------------------------|
|-------p---7--9---7-7---7-------------------------------------|
|-------------s------------9--9-7--7-5-------------------------|
|--------------------------------------------------------------|
|--------------------------------------------------------------|




What You're Lookin For

Tabbed By: Matt Pavlichko

Tuning: Dropped D

INTRO:
|---------0------------------9--------/--------------------------0----|
|---10------10----------10-----10-----/----1--------1-------------3---|
|------11------11----------9----------/------0--------0--------0---0--|
|-0---------------0-------------------/--------0--2-----2----5--------|
|---------------------0-----------0-2-/--3-------h--------------------|
|-------------------------------------/--------------------5---------5|

|------0-----------9-------\--------------0--------------------|
|--10---10------10--10-----\---1-----1----3--------------------|
|----11---11------9--------\----0-----0---0--------------------|
|-0---------0--------------\-----0-2---2--5--------------------|
|--------------0-------0-2-\--3---h-------x--------------------|
|--------------------------\--------------5--------------------|

VERSE:
|------2-3-2--0---0--0-\-------0-------------------------------|
|------3---3--1---1--1-\-------3----3---3----------------------|
|------2---2--0---0--0-\-------0----0---0----------------------|
|---0---------0---2--0-\-------5--5-4---x----------------------|
|-------------3---3--3-\-------x--------7----------------------|
|-0-------------h------\--5-5--5-------------------------------|

|-----3------2------0-----2------0-/---5---3----2----0---------|
|-------3------3------3------3-----/--0-0---0----0----0--3-----|
|---2------2-----2------0------0---/-0----0---0---0----0-------|
|-0--------------------------------/---------------------------|
|----------------------------------/---------------------------|
|----------------------------------/---------------------------|

CHORUS:
|--2------0-h2--2-x--------------------------------------------|
|--3------3-----3-x--------------------------------------------|
|--2------2-----2-x-----------2--2-----2-----------------------|
|--0--0---------------2-------2--2--4--2--0--------------------|
|---------------------0--3--4------h---------------------------|
|--------------------------h-----------------------------------|

|--------------------------------------------------------------|
|----1-------1--1------3---3--3--------------------------------|
|----0-------0--0------0---0--0--0-----------------------------|
|----0---2---2--0------5---4--x--0-----------------------------|
|--3---h-----3--3------x------7--------------------------------|
|-------------------5--5---------------------------------------|

Solo:
|-12-12-12----10-10-10---10-7-\--10----------------------------|
|-----------------------------\-----10---7-10--7---7-----------|
|-----------------------------\---------------p--10--10-9--7---|
|-----------------------------\---------------------------p---9|
|-----------------------------\--------------------------------|
|-----------------------------\--------------------------------|

|-12-12-12--10-10-10-10-7-/-10-----/----7-10-7-10-7----7----7---------|
|-------------------------/----10--/----------h--p--10---10--10-7-----|
|-------------------------/--------/-9-------------------------p---9--|
|-------------------------/--------/----------------------------------|
|-------------------------/--------/----------------------------------|
|-------------------------/--------/----------------------------------|

|--------------------------------------------------------------|
|-7-10---7---10-7-10-7-----7-----------------------------------|
|------9----------------10----10-------------------------------|
|--------------------------------9-7----9-7--------------------|
|------------------------------------9-------------------------|
|--------------------------------------------------------------|
                                                       overdub
|-------------------/-------------------------------/----------|
|-------------------/-10---7-10-7----7-repeat lick--/--20-bend-|
|-------------------/-------------10----------------/----------|
|-9-9---7--10--10-7-/-------------------------------/----------|
|-------------------/-------------------------------/----------|
|-------------------/-------------------------------/----------|
lick at the end
|--------------------------------------------------------------|
|--------------------------------------------------------------|
|--------------------------------------------------------------|
|-------0-2-3-----2-0-2---fade out-----------------------------|
|--------------------------------------------------------------|
|--------------------------------------------------------------|




Dead As Yesterday

Tabbed By: Skull Dragon and ESPayne

Tuning: D A D G B E

E|---------3---------3------------3-------------------3-----------3---|
B|---4--4----4-4--4----4----4--4----4-------4---4--4----4----4-4----4-|
G|------2---------0------------0----------0---0----2-----------0------|
d|-0------------------------------------0-------0---------------------|
A|-----------3------------2--------0-h2--------------------3----------|
D|--------------------------------------------------------------------|

E|--3---------------------3----------3---------3------------------|
B|--4-----------4-----4-4---4---4-4----4---4-4---4----------------|
G|--0---------0---0-----2---------0----------0------------0-------|
d|--0-------0-------0-----------------------------------0---------|
A|--2---0-2-------------------3----------2---------0-h2-----------|
D|----------------------------------------------------------0-1---|

E|-------------------------------3-------------------------------|
B|-----------------0-2-p0----4-4---4-----------------------------|
G|----0---------0--0-----------2-----2---------------------------|
d|------0----------2-----------------0---------------------------|
A|------------0--------------------------------------------------|
D|--2-----4-5--------------0-------------------------------------|

E|----------3--------------3---------------3--------------------|
B|----4--4-----4-----4--4-----4------4--4-----4-----------4-----|
G|-------2--------------0---------------0---------------0---0---|
d|--0-------------------------------------------------0---------|
A|----------------3---------------2--------------0-h2-----------|
D|--------------------------------------------------------------|

E|---------3----------3----------3------------------------------------|
B|----4--4---4---4--4---4---4--4---4--------------------------0--2-p0-|
G|-------2----------0----------0-------0--------0---------0---0-------|
d|--0--------------------------------0------------0-----------2-------|
A|-------------3----------2-----0-h2--------------------0-------------|
D|----------------------------------------0-1-2-----4-5---------------|

E|---------3--------3-----------3-----------3----------3--------------|
B|----4--4---4------4------4--4---4---4--4----4---4--4---4-------4----|
G|-------2-----2----2---------2----------0-----------0---------0---0--|
d|-------------0----0----0-----------------------------------0--------|
A|----------------------------------3-----------2-------0-h2----------|
D|--0-----------------------------------------------------------------|

E|---------3--------------------------------------------3---------3---|
B|----4--4---4-----------------------------0--2-p0-4--4---4-------4---|
G|-------0------------0-------0---------0--0----------0-----2-----2---|
d|------------------0-----------0----------2----------------0-----0---|
A|--2----------0-h2-------------------0----------2--------------------|
D|----------------------0-1-2-----4-5---------------------------------|

E|---------3----------3----------3------------------------------|
B|----4--4---4---4--4---4---4--4---4----------4-----------------|
G|-------2----------0----------0------------0---0---------------|
d|--0-------------------------------------0---------------------|
A|-------------3----------2----------0-h2-----------------------|
D|--------------------------------------------------------------|

E|--------3----------3----------3---------------------------------|
B|---4--4---4---4--4---4---4--4---4-------------------------------|
G|------2----------0----------0------------0----------------------|
d|-0-------------------------------------0------------------------|
A|------------3----------2----------0-h2--------------------------|
D|-------------------------------------------0-1------------------|

/ = repeat
/// = triplet
 (arpeggio)
E|---------------------------------3-----------------------------|
B|------------------0-2-p0----4--4---4--4-/-/--0-/---0-----------|
G|----0----------0--0------------2------2-/-/--0-/---2-----------|
d|-------0----------2-------------------0------0-----0-----------|
A|-------------0-------------------------------------2-----------|
D|--2------4-5--------------0------------------------------------|

E|--0---------------------------------------------------------------|
B|--0------///-/---///------0-/-/---0---///---0-/--///-/--0---/-----|
G|--0------///-/---///------0-/-/---0---///---0-/--///-/--0---/-0---|
d|--2-----------------------0-/-/---4---///---5-----------4-----0-/-|
A|--0-------------------5---------------------------------------5-/-|
D|------------------------------------------------------------------|

E|-----------------0--------------------------------------------|
B|--0--------------0--///-/----///----0-//--0---///-------------|
G|--2--------------0--///-/----///----0-//--0---///-------------|
d|--0--///-/--///--2------------------0-----4-------------------|
A|--2--///-/--///--0---------------5----------------------------|
D|--------------------------------------------------------------|

E|--------------------------------------------0------------------|
B|--0-/--///--0--//--/--------0---------------0--///-/--///------|
G|--0-/--///--0--//---0-------2---------------0--///-/--///------|
d|--5---------4-------0-------0--///-/---///--2------------------|
A|--------------------5-/-----2--///-/---///--0------------------|
D|---------------------------------------------------------------|

E|--------------------------------------------------------------|
B|-----0-//--0--///--0-/--///-/--0--/--/-------0----------------|
G|-----0-//--0--///--0-/--///-/--0--/--/--0----2--///-/--///----|
d|-----0-----4-------5-----------4--------0----0--///-/--///----|
A|--5-------------------------------------5----2----------------|
D|--------------------------------------------------------------|

E|--0-----------------------------------------------------------|
B|--0--///-/--///---0-/--///-/--0----/--------------------------|
G|--0--///-/--///---0-/--///-/--0----/-0-/---0------------------|
d|--2---------------5-----------4------0-/---0------------------|
A|--0----------------------------------5-----5------------------|
D|--------------------------------------------------------------|

E|---------3-------3----------------------------------3---3-----------|
B|----4--4---4-------4-----------------0--2-p0---4--4---4---4---------|
G|-------2------2---------0---------0--0------------2---------2-------|
d|--------------0------------0---------2------------------------------|
A|-------------------------------0------------------------------------|
D|--0--------------0-1--2----4-5---------------0-----------------0-1--|

E|--------------------------------------------------------------|
B|-------------0-------------0----------0---------0---------0---|
G|----0--------0--------5------5---5------5---0-----0---0-----0-|
d|------0------2-----------0----------0---------0---------0-----|
A|-------------0------3----------3----------2---------2---------|
D|--2-----4-5---------------------------------------------------|

E|------------------------------3----------3-------------------------|
B|---------0---------0-----4--4---4---4--4---4--------0---------0----|
G|----0------0---0-----0------2-----2----2--------5-----5---5-----5--|
d|-------0---------0----------------0---------------0---------0------|
A|--1----------1--------------------------------3---------3----------|
D|-----------------------0-------------------------------------------|

E|--------------------------------------------------------------|
B|--------0---------0------0------------------------------------|
G|----0-----0---0-----0----0------------------------------------|
d|------0---------0--------0------------------------------------|
A|--2---------2------------1------------------------------------|
D|--------------------------------------------------------------|




Too Numb To Cry

Tabbed By: Dove

Tuning: Standard


(piano transcribed for acoustic guitar)

Em        D          D/C#    G
I see you across the room

C                         B
Search for some happiness ain't anytime soon

Em          D          D/C#
Turmoil has turned you inside

C                          B                    E??   E   C
Sift through your pages of miracles you wish to find

Chorus
C                       D
When you're too numb to cry

B                            E??   E   C
& you're just left wondering why

C                       D
When you're too numb to cry

B
& you're just left wondering why

(repeat verse pattern)
To change in the blink of an eye
If you could you surely would wave yourself good-bye
I try & I try & I try
Get a hold on your suffering
Peace in which you don't wish to buy

end
E??   E   (4 X)

Chords




The Things You Do

Tabbed By: Matt Pavlichko

Tuning: Standard


INTRO
|--------h----------------------/-----------------------0------|
|------3--5-3-------------------/-----------------------3------|
|------2----2--------h--p-------/--------------------0--0------|
|-0-0--0-----------2--4--2----2-/-2--4--2------------4---------|
|--------------0-0-0--------5---/-x--x--x--5-----2---2---------|
|-------------------------------/-3--3--3--3-----0-------------|

intro lick
|-----------------/--------/-----------------------------------|
|-------10--------/--------/-----------------------------------|
|-9--11----11--9--/--9--7--/-----------------------------------|
|-----------------/--------/-----------------------------------|
|-----------------/--------/-----------------------------------|
|-----------------/--------/-----------------------------------|

VERSE:
|---------------/------3---------------/-----------------------|
|-----3------2--/------3---3-----------/-----3-----------------|
|-----2------2--/------0---0-----------/-----2--------2--------|
|-0-0-0------2--/----------0---------0-/-0-0-0--------2--------|
|--------0-0-0--/---------------0--2---/----------0-0-0--------|
|---------------/--3-3-------3----h----/-----------------------|

                            part before chorus:worse and even more..
|------------------0-----/--0-------/-0------/-----------------|
|------3-------3----3----/--3---0---/-3---3--/-----------------|
|------0---------0----0--/--0-----4-/-0---0--/-----------------|
|------0---------------4-/--4-------/-4---0--/-----------------|
|------x-----------------/----------/-----x--/-----------------|
|-3-3--3-----0-----------/----------/-----3--/-----------------|

CHORUS:
|-----0h-2-2----------/------------0-------/-------------------|
|-----3----3-------1--/-----3--3-----3-----/-------------------|
|-----2----2-------2--/-----0---0------0---/-------------------|
|-0-0-0------------2--/-----0------------4-/-------------------|
|-------------0-0--0--/-----x--------------/-------------------|
|---------------------/-3-3-3--------------/-------------------|

BRIDGE                  strum                   etc….
|------------0--------/---0---/--1-----3-/--0-h2-0--2----------|
|--------------3------/---1---/--1-----3-/--3----3--3----------|
|------0----------0---/---2---/--2-----4-/--2----2--2----------|
|---------4---------4-/---2---/--3-----5-/--0----0--0----------|
|----2----------------/---0---/--3-----5-/---------------------|
|--0------------------/-------/--1-----3-/---------------------|

SOLO:
Bar A                            bar B
|----------------------------/-----------------------------------|
|---10--bend-----------------/-----------------------------------|
|------9---9-9-7-9--9---9--7-/-7---------------------------------|
|---------------s----bend----/---7--9----------------------------|
|----------------------------/-----s-----------------------------|
|----------------------------/-----------------------------------|

|---------------/---/--------------------/-----------------------|
|---------------/---/--------------------/-----------------------|
|-repeat bar a--/-7-/--repeat-bar then B-/-----------------------|
|---------------/---/--------------------/-----------------------|
|---------------/---/--------------------/-----------------------|
|---------------/---/--------------------/-----------------------|

|--10-------7---------------------/------------------------------|
|-----10-------10-----------------/------------------------------|
|------bend---------9---9-9---7-9-/--9---9-7----7--9-------------|
|--------------------bend---------/---bend--------h---7--9-------|
|---------------------------------/---------------------h--------|
|---------------------------------/------------------------------|




1,000,000

Tabbed by: Skull Dragon

e-------------------------------------------------------------------|
B-------------------------------------------------------------------|
G-------------------------------------------------------------------|
D-----------------------------------9-------------------------------|
A--10--------------9---9---9---9----7-----------0----9--/-11--------|
E--0---------------10--10--10--10---0-----------0----10-/-12--------|
                                                      slide


e-------------------------------------------------------------------|
B-------------------------------------------------------------------|
G-------------------------------------------------------------------|
D-------------------------------------------------------------------|
A--9------------0---9-----9--/-11--11------------------14--13--12---|
E--10-----------0---10----10-/-12--12------------------15--14--13---|
(bass plays E)


e-------------------------------------------------------------------|
B-------------------------------------------------------------------|
G-------------------------------------------------------------------|
D--------------------------------------------12---------------------|
A--11-\-9-------x\\\\\\\---------11--12--14--11--------12--12--11---|
E--12-\-10------------\\\\\---0--0---0---0---0---------0---0---0----|
               (pick slide)


e--------------------------------------------------------------------|
B--------------------------------------------------------------------|
G--------------------------------------------------------------------|
D--------------12-------------------------------------12-------------|
A--11--12--14--11----9----9---10--11------11--12--14--11---11-12-12\-|
E--0---0---0---0-----10---10--11--12--0---0---0---0---0--------------|


e-------------------------------------------------------------------|
B-------------------------------------------------------------------|
G-------------------------------------------------------------------|
D-------------------------------------------------------------------|
A--9---0--9-----0--9---10--11----9---0--9---0--9----0--9--10--11----|
E--10--0--10----0--10--11--12----10--0--10--0--10---0--10-11--12----|

e------------------------------------------------------------------------|
B------------------------------------------------------------------------|
G------------------------------------------------------------------------|
D---------------12---------------------------------12--------------------|
A--11--12--14---11---------12--12--11--11--12--14--11-------9--10-11-----|
E--0---0---0----0----------0---0---0---0---0---0---0----0-0-10-11-12-0---|
Sailing across my ocean...  Im sailing across my sea...

e---------------------------------------------------------------------------|
B---------------------------------------------------------------------------|
G---------------------------------------------------------------------------|
D--------------12--------12\-\----------------------------------------------|
A--11--12--14--11--------11-\-\--9---0--9---0--9---0--9---0--9--10--11------|
E--0---0---0---0---------0---\-\-10--0--10--0--10--0--10--0--10-11--12-/X\--|
Fill it up with hope....

e-------------------------------------------------------------------|
B-------------------------------------------------------------------|
G-------------------------------------------------------------------|
D---------------12-----------------------------------12-------------|
A--11--12--14---11----------12--12--11---11--12--14--11-------------|
E--0---0---0----0-----------0---0---0----0---0---0---0--------------|
Sailing across my heaven...


                                            (Full)
e--12--12--12--12--12-----------|--15--------------------------------|
B--12--12--12--12--12-----------|------15----------------------------|
G--14--14--13--14--13-----------|----------14^-----12----------------|
D----------------------14--12---|----------------------14------------|
A-------------------------------|--------------------------12--------|
E-------------------------------|------------------------------------|
      First time                    Second time

e---------------------------------------------------------------------------|
B---------------------------------------------------------------------------|
G---------------------------------------------------------------------------|
D--------------12-------------------12\-\-----------------------------------|
A--11--12--14--11-------------------11-\-\---9--0-9--0--9---0--9--10--11----|
E--0---0---0---0--------------------0-----\--10-0-10-0--10--0--10-11--12----|
...find the voice I've been hearing...   Forever couldnt be too far.       For

e-------------------------------------------------------------------|
B-------------------------------------------------------------------|
G-------------------------------------------------------------------|
D-------------------------------------------------------------------|
A--9--0-9---0-9---0-9--10-11----------------------------------------|
E--10-0-10--0-10--0-10-11-12--/X\-----------------------------------|
   ever couldn't be too far   yeah

e-----------0------------------0--------------0-------------|
B---------------1------------------1-------1----------------|
G--------2------------------2---------2---------------------|
D-----2-----------------2-----------------------------------|
A--0--------------------------------------------------------|
E--------------------3--------------------------------------|
   Oh..........................it couldn't be too

e-------------------------------------------------------------------|
B-------------------------------------------------------------------|
G-------------------------------------------------------------------|
D--------------12---------------------------------------------------|
A--11--12--14--11------------------------------12--12--11-----------|
E--0---0---0---0-------------------------------0---0---0------------|
(ending 1)


e---------------------------------------------------------------------------|
B---------------------------------------------------------------------------|
G---------------------------------------------------------------------------|
D------------------------------------------------------12-------------------|
A--11--12--14--11-12-p11-12-p11-12-p11-12-p11--11-12-14--11-9--9--10-11-----|
E--0---0---0---0--0------0------0------0-------0--0--0---0--10-10-11-12-/x\-|
(ending 2)              p=pulloff                                           pick slide

e---------------------------||----------------------------------------|
B---------------------------||----------------------------------------|
G---------------------------||-------0-----0-----------0-------0------|
D--------------12-----------||----------------0-----------------------|
A--11--12--14--11-----------||-----------------------------0----------|
E--0---0---0---0---x\\\-----||-0--2-----3--------3--3-----------------|
(ending 3)       pick slide    Loneliness          my..........


e---0-----0---------------0-------------------------------------------|
B---0----------0-------------0----------------------------------------|
G---0-------------0-------------0--------0--------------0-------------|
D---2------------------------------2----------------------------------|
A---3-----------------3---------------3-------------------------------|
E--------------------------------------------0-----2---------3--------|
     friend...........                   I'll think about.....


e----------------------------------0-----------0---------------------|
B--0-------------------------------0----------------3----------------|
G-----0--------------0-------0-----0---------------------0-----------|
D--------0-------------------------2---------------------------------|
A----------------0-------0---------3---------------------------------|
E------------3-------------------------------------------------------|
      you        every              day        yeah


e------------------------------------------------------0-----0--------|
B------------------------------------------------------0---------0----|
G-------0--------0--------0----------------0-------0---0------------0-|
D----------------------------0-------------------------2--------------|
A-------------------------------0-----0--------0-------3--------------|
E--0--------2--------3-------------3----------------------------------|
sail        into                into       the light....    oh yeah


e--------0------------------------------------2---------------------|
B-----------0-------------------------------------------------------|
G--------------0-----------------------0--2-------------------------|
D------------------2-------------0--1-------------------------------|
A--3--------------------0--1--2-------------------------------------|
E-------------------------------------------------------------------|
                                                   Lord, a million miles


e---------------------------------------------------------------------------|
B---------------------------------------------------------------------------|
G---------------------------------------------------------------------------|
D-----------------12------------------------------------12------------------|
A--------11-12-14-11---12-p11--12-p11-12-p11---11-12-14-11---9---9--10-11---|
E--12\---0--0--0--0----0-------0------0--------0--0--0--0----10--10-11-12---|
   away.............                                          a million miles away...


e--------------------------------------------------------------------|
B-----------------12--12--12--12--12---------------------------------|
G-----------------14--14--13--14--13---------------------------------|
D-----------12------------------------14~~-------------12------------|
A--11-12-14-11--------------------------------11-12-14-11------------|
E--0--0--0--0---------------------------------0--0--0--0--------x\\--|
   Ohh...........                                            pick slide

Solo:

       6           6           6        3      4
  |---------| |---------| |---------| |---| |------------------------|
e--------------------------------------------------------------------|
B--------------------------------------------------------------------|
G--------------------------------------------------------------------|
D-0-2-0-2-0-2-0-2-0-2-0-2-0-2-0-2-0-2-0-2-0-2-0-2-0------------------|
A--------------------------------------------------------------------|
E--------------------------------------------------------------------|

         8               8
  |-------------| |-------------| 1/2--------------------------------|
e--------------------------------------------------------------------|
B--------------------------------------------------------------------|
G--------------------------------------------------------------------|
D----------------------------------2^--------------------------------|
A-2-0-2-0-2-0-2-0-2-0-2-0-2-0-2-0------------------------------------|
E--------------------------------------------------------------------|


bend:   1/2     1 1/2      1              1/2            1/2
e-------------------------------12-------------12-------------------|
B------------------------15^~------15-12----------15-12-------------|
G----------------------------------------14^~-----------14^~--------|
D-(2)--2^-----------------------------------------------------------|
A-------------------------------------------------------------------|
E---------------3^--------------------------------------------------|


             1/2              1
e--12--------------12--------------12----12-------------------------|
B-----15-12-----------15-12-15^~------15----------------------------|
G-----------14^-----------------------------------------------------|
D-------------------------------------------------------------------|
A-------------------------------------------------------------------|
E-------------------------------------------------------------------|

    1/2             1                          1
e--------12-------17^--17--12-15-12-14-12-12------12----------------|
B--15^~-----15-12----------------------------15^-----15-------------|
G-------------------------------------------------------------------|
D-------------------------------------------------------------------|
A-------------------------------------------------------------------|
E-------------------------------------------------------------------|

                                               1
e-------------------------------------------------------------------|
B--12----12-15-12----12-15-12-14-12-12-12-12------------------------|
G-----14----------14-------------------------14^--12----------------|
D----------------------------------------------------14~~~~~--------|
A-------------------------------------------------------------------|
E-------------------------------------------------------------------|

  slide                                        1
e-------------------------------------------------12----------------|
B----------------------------------------------------12-15-12----12-|
G-----------------11----------12-12-12h14-14-14^--------------14----|
D--x/0------12-14----14-12-14---------------------------------------|
A-------/14---------------------------------------------------------|
E-------------------------------------------------------------------|


e-------------------------------------------------------------------|
B--15-12-14-12----12-14---12----------------------------------------|
G--------------13------------14-12----14-12-14-14~~~~~--------------|
D-------------------------------------------------------------------|
A-------------------------------------------------------------------|
E-------------------------------------------------------------------|

       1/2  1/2        1
e-11--------------------------------------------12------------------|
B-----14^~~~~^----12-------------------------12---------------------|
G--------------------14^--p12-------------15------------------------|
D-----------------------------14~~~~~--x/---------------------------|
A-------------------------------------------------------------------|
E-------------------------------------------------------------------|

                                                                              1
e--------------------------12-------------12---12-----------12--------------|
B--15-12----------------12----15-12----12---12-----------12----15-12-----12-|
G--------15-14-12----14-------------15---15-----15-12-15-------------14^----|
D-----------------14--------------------------------------------------------|
A---------------------------------------------------------------------------|
E---------------------------------------------------------------------------|


e-12------------------17-15-------------17-15-------------17-15-------------|
B----15-12-15-12-15-12-------17-15-17-15------17-15-17-15-------17-15-15-17-|
G---------------------------------------------------------------------------|
D---------------------------------------------------------------------------|
A---------------------------------------------------------------------------|
E---------------------------------------------------------------------------|

                           1/2             1   1
e----17------------15-17^-15----15-19^-19^--16-17-16---17---15-16-15-15-17--|
B17--17-17-15-17-17----------17----------------------17----17---------------|
G---------------------------------------------------------------------------|
D---------------------------------------------------------------------------|
A---------------------------------------------------------------------------|
E---------------------------------------------------------------------------|

                                   1
e--------12---------------------------------------------------------|
B--15-12----15-12-15-12-15-12---------------------------------------|
G-----------------------------14-14^~-------------------------------|
D-------------------------------------------------------------------|
A-------------------------------------------------------------------|
E-------------------------------------------------------------------|

All full bends:
e---17^--17^--17^--17^--17^--17^--17^--15-----17^---15-17^-15---------|
B-----------------------------------------17~-----------------17~-----|
G-----------------------------------------------------------------x\--|
D---------------------------------------------------------------------|
A---------------------------------------------------------------------|
E---------------------------------------------------------------------|

                            1   1          1          1              1
e-----------------------------12-12-----------------12-12-12----------------|
B-12--12-12-------------------12-12-----------------12-13-12--14^--12-------|
G-12--12-12------12--14^-14^--------14^--14-12-14^---------------------14~--|
D------------14-------------------------------------------------------------|
A---------------------------------------------------------------------------|
E---------------------------------------------------------------------------|


e-------------------------------------------------------------------|
B-------------------------------------------------------------------|
G-------------------------------------------------------------------|
D----------------12------------------------------------12-----------|
A-------11-12-14-11---12-p11--12-p11-12-p11---11-12-14-11-----------|
E--12\--0--0--0--0----0-------0------0--------0--0--0--0------------|


        1
e-------------------------------------------------------------------|
B--15---------------------------------------------------------------|
G-----14^--12-------------------------------------------------------|
D--------------14-12--------------12--------------------------------|
A--------------------14--11-12-14-11--------------------------------|
E------------------------0--0--0--0---------------------------------|

                                             1
e-------------------------------------------------------------------|
B-------------------------------------------------------------------|
G-------------------------------------------------------------------|
D-----------------------------------12------------------------------|
A--12-p11--12-p11-12-p11---11-12-14-11------------------------------|
E--0-------0------0--------0--0--0--0----0--3^--0-------------------|

e-------------------------------------------------------------------|
B-------------------------------------------------------------------|
G-------------------------------------------------------------------|
D--6-----5-----4-----5--6----6--5--4--------------------------------|
A--7-----6-----5-----6--7----7--6--5--------------------------------|
E--0--0-----0-----0--------0----------7-----------------------------|
Play 4 times

     1        1/2
e-------------------------------------------------------------------|
B--13^-------12^---------12-----------------------------------------|
G-------------------------------------------------------------------|
D-------------------------------------------------------------------|
A-------------------------------------------------------------------|
E-------------------------------------------------------------------|
Fill1


    ~~~~ ~~~~~  ~~~~~~~~~~~~
e-------------------------------------------------------------------|
B---15---14----13-------(13\)---------------------------------------|
G---16---15----14-------(14\)---------------------------------------|
D-------------------------------------------------------------------|
A-------------------------------------------------------------------|
E-------------------------------------------------------------------|
Fill2

     1                       1~        1              1
e--15^--15--12-15-12----12------------------------------------------|
B--------------------15----15^~-----------12-12-15------------------|
G------------------------------------14^------------14^--14--12~----|
D-------------------------------------------------------------------|
A-------------------------------------------------------------------|
E-------------------------------------------------------------------|
riff1

                      1/2  1/2                             1/2 1/2
e-------------------------------------------------------------------------|
B-------------------------------------------------------------------------|
G-------------------------------------------------------------------------|
D--6-----5------4---------------------6-----5-----4-----------------------|
A--7-----6------5---------------------7-----6-----5-----------------------|
E--0--0------0-----0--5^---5^---3--0--0--0-----0-----0--0--5^---5---3--0--|
2nd guitar part... Play fill1 and/or fill2 before riff1
Then play this 2nd guitar part on top of fill/riff1


full bends:
e--17^-17-17-17--17-17-17--17--17--17-------------------------------|
B----------------------------------------17~\-----------------------|
G-------------------------------------------------------------------|
D-------------------------------------------------------------------|
A-------------------------------------------------------------------|
E-------------------------------------------------------------------|

e-------------------------------------------------------------------|
B--12-15-12----------12---------------------------------------------|
G-----------15-14-15-----15-14-12-----------------------------------|
D---------------------------------14~~~-----------------------------|
A-------------------------------------------------------------------|
E-------------------------------------------------------------------|

full bends:
e-------------------------------------------------------------------|
B------12-15------12-15------12-15-----12-15------12-15-12----------|
G--14^--------14^--------14^-------14^--------14^-------------------|
D-------------------------------------------------------------------|
A-------------------------------------------------------------------|
E-------------------------------------------------------------------|

     1                   (bend another 1/2)
e---------------------15^~~~^------------------12~-\----------------|
B--15^~--15\----------------------------------------\---------------|
G-------------------------------------------------------------------|
D-------------------------------------------------------------------|
A-------------------------------------------------------------------|
E-------------------------------------------------------------------|

      1                                 1
e----------------------------------------------17^--17^--17^--17^---|
B-----------------12------------------15^-\-------------------------|
G---14^--12~---14----12~~---14-14-12-------\------------------------|
D-------------------------------------------------------------------|
A-------------------------------------------------------------------|
E-------------------------------------------------------------------|




I Thank You Child

Tabbed By: Matt Pavlichko

Tuning: Dropped D

INTRO:
Play 3 times          4th time
|-----------------/-----------------/--------------------------|
|-----------------/-----------------/--------------------------|
|-----------0-----/---------0-------/--------------------------|
|-------4------4--/-------0-------0-/--------------------------|
|----5----5-------/----0------------/--------------------------|
|--0--------------/--3---------5----/--------------------------|

VERSE:
Play 4 times….     5th time…
|-----------------/----------------/--------------/------------|
|-----------------/----------------/--------------/------------|
|------------0----/------------0---/----------0---/--------0---|
|------4-------4--/-------0------0-/------0-----0-/-----4---4--|
|---5----5--------/--0--3----3-----/-0--2---2-----/--5---5-----|
|-0---------------/----h-----------/---h----------/-0----------|

chorus part
|---------------/--------------/--------------/----------------|
|---------------/--------------/--------------/----------------|
|-----------0---/----------0---/----------0---/---------0------|
|-------3-----3-/------2-----2-/------4-----4-/-----4-----4----|
|----3----3-----/----2---2-----/----5---5-----/---5---5--------|
|--3------------/--2-----------/--0-----------/-0--------------|

|--------------/--------------/------------/-------------------|
|----------1---/----------1---/------------/-------------------|
|-----2------2-/-----0------0-/---------0--/---------0---------|
|-3-----3------/--2----2------/-----4----4-/-----4-----4-------|
|--------------/--------------/---5---5----/---5---5-----------|
|--------------/--------------/-0----------/-0-----------------|

|-------------/-----------/--------------/---------------------|
|-------------/-----------/--------------/---------------------|
|---------0---/-------0---/----------0---/--------0------------|
|-----3-----3-/----2----2-/------4-----4-/----4-----4----------|
|---3---3-----/--2--2-----/---5----5-----/--5---5--------------|
|-3-----------/-2---------/-0------------/-0-------------------|

|----------3---/---------3---/------------2---/-0--2-----------|
|------3-----0-/-----3-----3-/-------3--------/---h--3---------|
|---0----0-----/---0---0-----/----2----2----2-/--------2-------|
|--------------/-------------/----------------/-----------0----|
|-3------------/-2-----------/----------------/-------------2--|
|--------------/-------------/--0-------------/----------------|

|------------3---/---------3---/---------2---/--0--2-----------|
|-------3--------/-----3-------/-----3-------/----h--3---------|
|----0----0----0-/---0---0---0-/---2---2---2-/---------2-------|
|----------------/-------------/-------------/-----------------|
|-3--------------/-2-----------/-------------/------------0-2--|
|----------------/-------------/-0-----------/-----------------|

part before heavy chords:
|------2--/---5--/--4--/--3----/-------------------------------|
|--2---3--/---6--/--5--/--4----/------------------2------------|
|--3---2--/---5--/--4--/--3----/------------------3------------|
|--0---0--/------/-----/-------/------------------0------------|
|--0------/------/-----/-------/--3-2-0--3-0--3---0------------|
|--0------/------/-----/-------/--3-2-0--3-0--3---0------------|




Evil Ways

Tabbed By: Maneco Wylde

Beginning:
|----0-h-2---2---2--2------0-h-2--3--3--3--3----------|
|----3----3---3---3--3------3---3---2--2--2--2--------|
|----2----2---2---2--2------2---2---3--3--3--3--------|
|-----------------------------------------------------|
|-----------------------------------------------------|
|-----------------------------------------------------|

Just play with that part. I can make it identical in my acoustic but I can't
tab it correct.



The Color Green

Tabbed by: Brewtality

Standard tuning

Intro                                                           slide
e-------5----------------------------------------------------------------0---------------0------------------------|
b----------7------8----------7----------5----------------------------0--------------0----------------0----------0-|
g-------------7-------7---------7------------7---------7---------4/5-----------4-----------------4----------0-----|
d----0-------------------0----------0------------0----------0--------------------------------5----------4---------|
a-----------------------------------------------------------------------------------------------------------------|
e-----------------------------------------------------------------------------------------------------------------|

    hammer on and slide   verse2x  (strum)                   (strum)   hammer on  (strum)
                                                                       and strum
e----------------------|--------0-2-2-2-3-2--------------------3-------3-3---------3---------0-2-2-2-3-2-2-2-0-2-|
b----------------------|--------3-3-3-3-3-3--------------------3-------3-3---------3---------3-3-3-3-3-3-3-3-3-3-|
g----------------------|--------2-2-2-2-2-2-----------0-----0--0-------0-0---------0---------2-2-2-2-2-2-2-2-2-2-|
d-----------0-2/4---0--|---0-0--0-0-0-0-0-0---------2-----0----0-------0-2---------0---------0-0-0-0-0-0-0-0-0-0-|
a----0-2/3-------------|----------------------0-2-3-----2------2-------0-3---------2-----------------------------|
e----------------------|---------------------------------------3-------------------3-----------------------------|


  And your so called friends......   And they ain't what they was.....
   (strum)
e---0---------0-2-2-2-3-2-2-2-0-2--|-----------0--------------------0---------------------------0-2-------3-2--|
b---0---------3-3-3-3-3-3-3-3-3-3--|-----3---------3---------3----------3------3--------3-------3-3-3-----3-3--|
g---2---------2-2-2-2-2-2-2-2-2-2--|--------0--------------------0----------0---------------2----------2-------|
d---3---------0-0-0-0-0-0-0-0-0-0--|------------------------------------------------0--------------------------|
a----------------------------------|--1---------------0--------------------------------------------------------|
e----------------------------------|---------------------------------------------------------------------------|


e---------0-2--|
b---3-----3-3--|
g------2-------|
d--------------|
a--------------|
e--------------|




Peddlers Of Death

Transcribed: Xes

Intro
  E E E Q  E E E   +E  E E E E E  E  E
|-------0--------|-----------0----0----|
|-3-6------6---6-|-(6)-6-------2-(2)-2-|
|-0---0------0-0-|-(0)---0-0---0-(0)---|
|-3---3--------3-|-(3)-----3---3-(3)---|
|-0---0--------0-|-(0)-----0---0-(0)---|
|----------------|---------------------|


  E E E E E E E E   +E  E E E S S S S Q
|-----------------|-----------------------|
|-2h3-3---3-----2-|-(2)-------2h3p2p0-2---|
|-0-----0---0-0---|-----0---0-0-------0---|
|-0-----0-----0---|-------0-0-0-------0---|
|-0-----0-----0---|---------0-0-------0---|
|-----------------|-----------------------|


    E  E  E  E  E E E E   +E  E E E E E  E  E
||--------------0-------|-----------0----0----|
||o-3-/6--6-(6)---6-----|-----6-------2-(2)-2-|
||--0-(0)-0--0------0---|-------0-0---0-(0)---|
||--3-(3)-3-(3)---------|---------3---3-(3)---|
||o-0-(0)-0-(0)-------0-|-(0)-----0---0-(0)---|
||----------------------|---------------------|


  E E E E E E E E   +E  E E E S S S S Q
|-----------------|----------------------||
|-2h3-3---3-----2-|-(2)-------2h3p2p0-2-o||
|-0-----0---0-0---|-----0---0-0-------0--||
|-0-----0-----0---|-------0-0-0-------0--||
|-0-----0-----0---|---------0-0-------0-o||
|-----------------|----------------------||


  E  E  E  E  E E E E   +E  E E E E E  E  E
|-------------0-------|-----------0----0----|
|-3-/6--6-(6)---6-----|-----6-------2-(2)-2-|
|-0-(0)-0--0------0---|-------0-0---0-(0)---|
|-3-(3)-3-(3)---------|---------3---3-(3)---|
|-0-(0)-0-(0)-------0-|-(0)-----0---0-(0)---|
|---------------------|---------------------|


  W          E E E E E E E E   E E E E E E E E
|----------|-----0-----------|-----------------||
|-0--------|-0h1-------0-----|-----------------||
|-0--------|-------0h2-------|-0-------0-------||
|-0--------|-------------0h2-|-------0---0-----||
|-0--------|-----------------|---4h5-------2p0-||
|----------|-----------------|-----------------||


 Verse
  E  E E E E E E E   +E  E E E E E E E   Q  E E E E E E   +E  E E E  E E E E
|----------0-------|-----------0---0---|--------0-------|--------------------|
|------3-----3-----|-----3-------1---1-|----0-----0-----|--------------------|
|--------0-----0---|-------0-----0-----|------0-----0---|-----0--------------|
|-2-/4-------------|---------4---2-----|----------------|-------0------------|
|-0--------------0-|-(0)---------------|-0------------0-|-(0)-----0-/7-5-4-2-|
|------------------|-------------------|----------------|--------------------|


  E  E E E E E E E   +E  E E E E E E E   Q  E E E E E E   +E  E E E E E E E
|----------0-------|-----------0---0---|--------0-------|-------------------|
|------3-----3-----|-----3-------1---1-|----0-----0-----|-----0-------------|
|--------0-----0---|-------0-----0-----|------0-----0---|-------0-----------|
|-2-/4-------------|---------4---2-----|----------------|---------0---------|
|-0--------------0-|-(0)---------------|-0------------0-|-(0)-------0-2-4-5-|
|------------------|-------------------|----------------|-------------------|


   (Vocals Enter) Verse Cont.
    E  E E E E E E E   +E  E E E E E E E
||-----------0-------|-----------0---0---|
||o------3-----3-----|-----3-------1---1-|
||---------0-----0---|-------0-----0-----|
||--2-/4-------------|---------4---2-----|
||o-0--------------0-|-(0)---------------|
||-------------------|-------------------|


  Q  E E E E E E   +E  E E E  E E E E
|--------0-------|--------------------||
|----0-----0-----|-----0-------------o||
|------0-----0---|-------0------------||
|----------------|---------0----------||
|-0------------0-|-(0)-------/7-5-4-2o||
|----------------|--------------------||


    E  E E E E E E E   +E  E E E E E E E   Q  E E E E E E   +E  E E E E E E E
||-----------0-------|-----------0---0---|--------0-------|-------------------||
||o------3-----3-----|-----3-------1---1-|----0-----0-----|-----0------------o||
||---------0-----0---|-------0-----0-----|------0-----0---|-------0-----------||
||--2-/4-------------|---------4---2-----|----------------|---------0---------||
||o-0--------------0-|-(0)---------------|-0------------0-|-(0)-------0-2-4-5o||
||-------------------|-------------------|----------------|-------------------||


 Pre-Chorus
  E E E Q  E E E   E E E Q  E E E   E E E E E E E E   E  E  E E  E  E E E
|----------------|----------------|-----------------|-------0----0--------|
|-------0----0---|-------0----0---|-------0---------|-0h=1----1-(1)p0-----|
|-----0----0---0-|-----0----0---0-|-----0---0---0---|-0-(0)-----------0---|
|---3------------|---2------------|---0-------0-----|-0h=2--------------0-|
|----------------|----------------|-5-----4-----4s2-|-0-(0)---------------|
|-3--------------|-2--------------|-----------------|---------------------|


  E E E Q  E E E   E E E Q  E E E   E E E Q  E E E   E E E Q  E E E
|----------------|----------------|-------0--------|-2-----2--------|
|-------0----0---|-------0--------|-----3----3-----|---3------3-----|
|-----0----0---0-|-----0----0-----|---0--------0---|-----0------0---|
|---3------------|---2--------2p0-|----------------|----------------|
|----------------|----------------|-5------------5-|-5------------5-|
|-3--------------|-2--------------|----------------|----------------|


  E E E Q  E E E   E E E Q  E E E
|-4-----4--------|-4-----4-----------||
|---0------0-----|---0------0--------||
|-----0------0---|-----0------0------||
|----------------|-------------------||
|-5------------5-|-5------------5----||
|----------------|-------------------||


 Chorus
  E E E E E E E E   E E E Q  E E E   Q  E E E E E E   Q  E E E E E E
|-----------------|----------------|----------------|----------------|
|-------0---------|-------0----0---|----0-----------|----------------|
|-----2---2---0---|-----0----0---0-|------0-----0---|------0-------0-|
|---2-----------0-|---5------------|--------0-4---4-|-2--0---0---0---|
|-2---------4-----|-5--------------|-0--------------|----------7-----|
|-----------------|----------------|----------------|----------------|


  E E E E E E E E   E E E Q  E E E   Q  E E E E E E   Q  E E E E E E
|-----------------|----------------|--------0---0---|-0------0-------|
|-------0---------|-------0--------|-0--0-----1---1-|-0--0-----0-----|
|-----2---2---0---|-----0----0-----|-0----0---0-----|-0----0-----0---|
|---2-----------0-|---5--------5---|-0--------2-----|-0------------0-|
|-2---------4-----|-5------------5-|-0--------0-----|-0--------------|
|-----------------|----------------|----------------|----------------|


  E E E E E E E E   E E E Q  E E E   Q  E E E E E E   Q  E E E E E E
|-----------------|----------------|----------------|----------------|
|-------0---------|-------0--------|--------0-------|--------0-------|
|-----2---2---0---|-----0----0-----|----0-------0---|----0-------0---|
|---2-----------0-|---5--------5---|------0-------0-|------0-------0-|
|-2---------4-----|-5------------5-|-0--------------|----------------|
|-----------------|----------------|----------4-----|-2--------0-----|


  E E E E E E E E   E E E Q  E E E   Q  E E E E E E   Q  E E E E E E
|-----------------|----------------|--------0-0-0---|-0--0-----------|
|-------0---------|-------0--------|-0--0-----1---1-|-0--------------|
|-----2---2---0---|-----0----0-----|-0----0---0-----|-0--------------|
|---2-----------0-|---5--------5---|-0--------2-----|-0------0-------|
|-2---------4-----|-5------------5-|-0--------0-----|-0----4---5-4-2-|
|-----------------|----------------|----------------|----------------|


 Ending
  E E E Q  E E E   +E  E E E E E  E  E
|-------0--------|-----------0----0----|
|-3-6------6---6-|-(6)-6-------2-(2)-2-|
|-0---0------0-0-|-(0)---0-0---0-(0)---|
|-3---3--------3-|-(3)-----3---3-(3)---|
|-0---0--------0-|-(0)-----0---0-(0)---|
|----------------|---------------------|


  E E E E E E E E   +E  E E E S S S S Q
|-----------------|----------------------|
|-2h3-3---3-----2-|-(2)-------2h3p2p0-2--|
|-0-----0---0-0---|-----0---0-0-------0--|
|-0-----0-----0---|-------0-0-0-------0--|
|-0-----0-----0---|---------0-0-------0--|
|-----------------|----------------------|


    E  E  E  E  E E E E   +E  E E E E E  E  E
||--------------0-------|-----------0----0----|
||o-3-/6--6-(6)---6-----|-----6-------2-(2)-2-|
||--0-(0)-0--0------0---|-------0-0---0-(0)---|
||--3-(3)-3-(3)---------|---------3---3-(3)---|
||o-0-(0)-0-(0)-------0-|-(0)-----0---0-(0)---|
||----------------------|---------------------|


  E E E E E E E E   +E  E E E S S S S Q
|-----------------|----------------------||
|-2h3-3---3-----2-|-(2)-------2h3p2p0-2-o||
|-0-----0---0-0---|-----0-----0-------0--||
|-0-----0-----0---|-------0-0-0-------0--||
|-0-----------0---|---------0-0-------0-o||
|-----------------|----------------------||


  E  E  E  E  E E E E   +E  E E E E E  E  E     W          +W
|-------------0-------|-----------0----0----|-^<5>------|-(<5>)----|
|-3-/6--6-(6)---6-----|-----6-------2-(2)-2-|-^<5>------|-(<5>)----|
|-0-(0)-0--0------0---|-------0-0---0-(0)---|-^<5>------|-(<5>)----|
|-3-(3)-3-(3)---------|---------3---3-(3)---|-^<5>------|-(<5>)----|
|-0-(0)-0-(0)-------0-|-(0)-----0---0-(0)---|-^<5>------|-(<5>)----|
|---------------------|---------------------|-----------|----------|
comments
We did not receive enough feedback on this tab! Please rate:
1 2 3 4 5
I want to post or [tab]
guest
You may want to rate the tab now too:
select rating
Please do not post tabs as comments. Select "correction" instead!