Oops, an error
Loading. Please wait.

Farm Fiddlin Tab

ver1
ver1

Whole song

More versions @911Tabs.com
7,462 views 42 this week
2 commentsread comments
1 2 3 4 5
please rate
add to favorites launch autoscroll
font size
0
reset
Autoscroll
+/-
esc
set tempo
stop
Contributor
Difficulty
advanced
WARNING: You are trying to view
                                    content from Ultimate-Guitar.com
                                    in an unauthorized application,
                                    which is prohibited.

                                    Please use an official Ultimate
                                    Guitar Tabs application for iPhone,
                                    iPad or Android to access legitimate
                                    chords, guitar, bass, and drum tabs
                                    from Ultimate-Guitar.com database.

                                    Type "ultimate guitar tabs" in Apple
                                    App Store's or Android Market's
                                    search to find the application.
Gtr I (Eb Ab Db Gb Bb Eb) - 'Banjo'
Gtr II (Eb Ab Db Gb Bb Eb) - 'Gtr 2 (slide)'
Gtr III (Eb Ab Db Gb Bb Eb) - 'Gtr 3 (dist.)'
Gtr IV (Eb Ab Db Gb Bb Eb) - 'Gtr 4 (dist.)'
Gtr V (Eb Ab Db Gb Bb Eb) - 'Gtr 5 (acoustic)'


 Intro
  Fast Country Q=176
  N.C.(G)
 4/4
  Gtr I
  Q  E Q.    Q      E   +S  S S S S S  S S S S S S S S
|-----------------|------------------------------------|
|------0-----0----|-0---------0------------------------|
|------2b4---2b4--|-2b4r(2)p0-2p0---0------0---2p0---0-|
|-----------------|---------------2---/2-2---2-----2---|
|-----------------|------------------------------------|
|----3------------|------------------------------------|


  S S S S S S S S S S S S E E
|------------------------------||
|------------------------------||
|-2h3p2p0-2p0---------------0--||
|-------------2-0-2p0----------||
|---------------------2p0------||
|-------------------------3----||


   Country Theme 1
    N.C.(G)
     E S S S S S S a E S S S S S S    E S S S S S S e e S S S S
||---------------------------------|----------------------------|
||o--------------------------------|----------------------------|
||-----0---4p0---0-----0-----0-2p0-|----0---4p0---0-4-3-2p0---0-|
||--/5---5-----5---------0h2-------|-/5---5-----5-----------0---|
||o----------------3s5-------------|----------------------------|
||---------------------------------|----------------------------|


   E S S S S S S a E S S S S S S   E   S S    S S    +S  S S S S S S S E
|--------------------------------|----------------------------------------||
|--------------------------------|-----3------3--------------------------o||
|----0---4p0---0-----0-----0-2p0-|-2b4---2pb4---2pb4r(2)p0-2p0---0-----0--||
|-/5---5-----5---------0h2-------|-----------------------------0---0h2----||
|----------------3s5-------------|---------------------------------------o||
|--------------------------------|----------------------------------------||


 Country Theme 2
  G                                   Gsus2Aadd9
    E  E  S  S  S  S   S   S  S  S  E  E
|----------------------------------------|
|-----12-12p10----12------12p10----12-10-|
|----------------------------------------|
|-----12-12-------12------12-------12-12-|
|--10----------10----(10)-------10-------|
|----------------------------------------|
|
| Gtr II
|   H                  Q.              E
|----------------------------------------|
|-/12---------------------------------12s|
|-/12------------------------------------|
|----------------------------------------|
|----------------------------------------|
|----------------------------------------|


                                          Bsus2/C    Bbadd2/C       Am/C
   E  E  S  S  S  S   S   S  S  S  E  E   E  E  S  S S  S  S   S  S S  E E
|---------------------------------------|------------------------------------|
|----12-12p10----12------12p10----12-10-|---12-12s11---11-----11s10---10-----|
|---------------------------------------|--------------------------------9\--|
|----11-11-------11------11-------11----|---11-11s10---10-----10------10-----|
|-12----------12----(12)-------12-------|------------------------------------|
|---------------------------------------|-8----------8----(8)-------8--------|
|
|  H                  Q.              E   H                H
|-------------------------------------5s|=8----------------------------------|
|-10----------------------------------5s|=8----------------------------------|
|---------------------------------------|------------------------------------|
|---------------------------------------|------------------------------------|
|---------------------------------------|------------------------------------|
|---------------------------------------|------------------------------------|


  (Gm)                           G                                  Gsus2Aadd9
  S S S S S S S S S S S S Q       E  E  S  S  S  S   S   S  S  S  E  E
|------------------------------|---------------------------------------|
|------------------------------|----12-12p10----12------12p10----12-10-|
|-7p0-6p0-5p0---0-3p0---0-3/---|---------------------------------------|
|-------------5-------5--------|----12-12-------12------12-------12-12-|
|------------------------------|-10----------10----(10)-------10-------|
|------------------------------|---------------------------------------|
|
| H.                      E  E    H                  Q.              E
|------------------------------|---------------------------------------|
|----------------------------8s|=12---------------------------------12s|
|----------------------------8s|=12------------------------------------|
|------------------------------|---------------------------------------|
|------------------------------|---------------------------------------|
|------------------------------|---------------------------------------|


   E  E  S  S   S  S  +S   S  S  S  S  S  E
|--------------------------------------------|
|----12-12p10-----15-(15)----14----13----12--|
|-----------------14-(14)----13----12----11--|
|----11-11----/14---------13----12----11-----|
|-12-----------------------------------------|
|--------------------------------------------|
|
|  H                   Q.                 E
|--------------------------------------------|
|-10-----------------------------------------|
|----------------------------------------14s=|
|----------------------------------------14s=|
|--------------------------------------------|
|--------------------------------------------|


   E  E  S  S S  S  S   S  S  S S S S S
|---------------------------------------|
|----11-11s10---11-----11s10------------|
|-------------------------------9p0-7p0-|
|----10-10------10-----10----10---------|
|---------------------------------------|
|--8----------8----(8)------------------|
|
|  H                H
|---------------------------------------|
|---------------------------------------|
|-12------------------------------------|
|-12------------------------------------|
|---------------------------------------|
|---------------------------------------|


  Bm  Bbm Am   D   C#  C   (Gm)
  E S S S E  S S E E S E   S S S S S S S S S S S S E E
|-7---6---5\-------------|-----------------------------||
|--------------7---6---5-|-----------------------------||
|-7---6---5\---7---6---5-|---5p0-5-3p0---0-3p0---0-3s7-||
|---8---7----7---6---5---|-5-----------5-------5-------||
|------------------------|-----------------------------||
|------------------------|-----------------------------||
|
| W                        W
|------------------------|-----------------------------||
|------------------------|-----------------------------||
|------------------------|-----------------------------||
|------------------------|-----------------------------||
|------------------------|-----------------------------||
|------------------------|-----------------------------||


 Country Theme 3
  D              DsusD   C
  Q  E S S  E. S S S E   E E S S S S  S  S S S S S  S S
|----------------------|--------------------------------|
|------7---10----8---7-|---5-5-----5-----5-----5--------|
|----7---7-------7---7-|---5-5p0---5-----5p0---5p0----0-|
|-0------------0---0---|---------------------------/5---|
|----------------------|-3-------3---(3)-----3----------|
|----------------------|--------------------------------|


    (Gm)
                    PM--|
    E S S S S S S S S S S S S S S
||---------------------------------||
||o-------------------------------o||
||----0---5p0---3p0---5p0-3p0---0--||
||--5---5-----5-----5---------5----||
||o-------------------------------o||
||---------------------------------||


  D                 DsusD   C
  E S S E S S  E. S S S E   E E S S S S  S  S S S S S  S S
|-------------------------|--------------------------------|
|---7-----7---10----8---7-|---5-5-----5-----5-----5--------|
|-----7-----7-------7---7-|---5-5p0---5-----5p0---5p0----0-|
|-0-----0---------0---0---|---------------------------/5---|
|-------------------------|-3-------3---(3)-----3----------|
|-------------------------|--------------------------------|


    (Gm)
                    PM--|
    E S S S S S S S S S S S S S S
||-----------------------------------||
||o---------------------------------o||
||----0---5p0---3p0---5p0-3p0---0----||
||--5---5-----5-----5---------5------||
||o---------------------------------o||
||-----------------------------------||


 Banjo Solo
  N.C.(Gm)
                    PM  PM                   PM
                                                     |-3--|
  S S e e S S S S S S S S S S   E    S S S S S S    +S  S S S S E   +E
|-----------------------------|-----------------------------------------|
|-----------------3---5---3h5-|-5pb6r3---5---3--------------------------|
|-----3-5-3h5-----------------|--------5---5---5pb7r(5)p3---5p0-3b5r(3)-|
|-------------3h5---5---5-----|---------------------------5-------------|
|-5s7-------------------------|-----------------------------------------|
|-----------------------------|-----------------------------------------|


              PM         PM|
  E S S E a S S S    +S  S S S S S S   S S S S E   +S  S E a E S S E
|------------------------------------|-------------------------------|
|-7-5---5---3---5pb7r(5)-----5---3h5-|-----5---3b5r(3)---3---------0-|
|-7-5---5---3---5pb7r(5)-3---5---3h5p|=3---5---3b5r(3)---3---------7-|
|-----5---x---5------------5---5-----|---5---5---------5---5p3-5s7---|
|------------------------------------|-------------------------------|
|------------------------------------|-------------------------------|


                                                               ~
  S  S S S  S S S  S S S  S S S  S E   S S S S S S S S S S S S Q
|------------------------------------|----------------------------|
|------6------6------6------6------6-|---------5---3--------------|
|-8s10---8s10---8s10---8s10---8s10---|-8s5p3---5---3h5p3---5---3--|
|------------------------------------|-------5---5-------5---5----|
|------------------------------------|----------------------------|
|------------------------------------|----------------------------|


                                              PM
  S S S S S S S S S S S S S S S S   S S S S S S S S S S S S S S E
|-9---8---7---6-------------------|-------------------------------||
|---8---7---6-----6---5---4---3---|-------------------------------||
|---------------6---5---4---3-----|-5---4---3---0-----------------||
|-------------------------------5-|---4---3---2-----4---3---2---0-||
|---------------------------------|---------------5---4---3---2---||
|---------------------------------|-------------------------------||


 Country Theme 4
     Asus4A     AsA74 A            C
      E E E S S S S S S S S  S S    E E S S S S S S S S S S  S S
|--------------------------------|-------------------------------|
|--------------------------------|----5-5-----5---5-----5--------|
|-------7-6-----7p6---6----------|----5-5p0---5---5p0---5p0------|
|-------7-7p5---7p5---7p5----7p5-|-----------------------------0-|
|-----0-------0-----0-----7------|--3-------3---3-----3-----/5---|
|--------------------------------|-------------------------------|
|
| Gtr II
|  a  H         Q.           E      H           H
|--------------------------------|-------------------------------|
|--------------------------------|-------------------------------|
|-12s14---------------------14s==|=17----------------------------|
|-12s14---------------------14s==|=17----------------------------|
|--------------------------------|-------------------------------|
|--------------------------------|-------------------------------|


    G                                      Asus4    A     Asus4 A
     E S S S   e  S S S S S S S S S         E S S S S S S S S S S S S  S S
||-----------------------------------||------------------------------------|
||o----------^-3----3h5p3p0---------o||------------------------------------|
||-----0-4h5-^(5)-4---------3p0-2p0--||-------7-----6-----7-----6------6---|
||--/5-------------------------------||-------7p5---7p5---7p5---7p5----7p5-|
||o---------------------------------o||-----0-----0-----0-----0-----0------|
||-----------------------------------||------------------------------------|
|
|    W                                   a  H             Q.           E
||-----------------------------------||------------------------------------|
||o---------------------------------o||------------------------------------|
||-----------------------------------||-12s14-------------------------14s==|
||-----------------------------------||-12s14-------------------------14s==|
||o---------------------------------o||------------------------------------|
||-----------------------------------||------------------------------------|


  C          D                 G
   E E S S E e  E   Q    a      e E  S     S  E  S  S  S  S      +S   S  E
|-------------------6---(6)/-|-10------------15----------------------------|
|----5-5-----7-10---7---(7)/-|-12---------12----15p12-12-------------------|
|----5-5p0---7--7------------|-12---14b16----------------14pb16r(14)p12----|
|----------0-----------------|------------------------------------------14-|
|--3-------------------------|---------------------------------------------|
|----------------------------|---------------------------------------------|
|
| Gtr II
|  H         E  E  +Q           Q    Q           H
|----------------------------|---------------------------------------------|
|--------------17-(17)s======|=15------------------------------------------|
|-17-------------------------|---------------------------------------------|
|-17-------------------------|---------------------------------------------|
|----------------------------|---------------------------------------------|
|----------------------------|---------------------------------------------|


  G
   e    E   E  S   S   E  S   S   E  S   S
|----------------(22)-------(21)-------(20)-|
|-12----------------------------------------|
|-12-/(16)-19-19------18-18------19-19------|
|-------------------------------------------|
|-------------------------------------------|
|-------------------------------------------|
|
|  W
|-------------------------------------------|
|-------------------------------------------|
|-------------------------------------------|
|-------------------------------------------|
|-------------------------------------------|
|-------------------------------------------|


  G
   E S  S  S      +S   S  S  S S S  S  S  S  S  S
|-------------------------------------------------|
|-12---13-13pb14r(13)p11----13--------------------|
|-12---------------------12------x-12p10----12p10-|
|----------------------------------------12-------|
|-------------------------------------------------|
|-------------------------------------------------|


                                        PM       PM
   S  S  E  E       E       S  S  S  S  S  S  S  S
|----------10b10.5-10b10.5-------------------------|
|----------11b11.5-11b11.5----------12----12-------|
|-10h12p10-----------------12p10----12----12p10----|
|--------------------------------12----12-------12-|
|--------------------------------------------------|
|--------------------------------------------------|


  G                  Gm                   G              Gm
                   PM                                PM|
    S  S  E  S S S S S S S S S S  S S   E  E S S S S S S  E E S S
|-^15---------------------------------|---^3----------------------|
|-^12----12\---7----------------------|---^3----------------------|
|-^12----12\-7---6-6-5p0---0h3p0----0-|-3-^4-----0---0------3-----|
|-^12-12-----------------5-------/5---|------0h2---2---0-/5---5p3-|
|-------------------------------------|---------------------------|
|-------------------------------------|---------------------------|


    C5/G      D7        C#7 C7    C5/G      D7        C#7 C7
        PM|                           PM|
    E S S S S S S S S E S S E     E S S S S S S S S E S S E
||-----------------------------||----------------------------|
||o---8-----6S7---7-----6---5-o||---8-----6S7---7-----6---5/-|
||------5-----------5---4---3--||-----5-----------5---4---3/-|
||--5-----5-----7-----6-6-5-5--||-5-----5-----7-----6-6-5-5/-|
||o---------------------------o||----------------------------|
||-----------------------------||----------------------------|


                                Country Theme 1
  Fm6    Em6   Ebm6              N.C.(G)
                 |-3-|
    E. S S E S E S S S S S E      E S S S S S S a E S S S S S S
|-^10----9-----8-------------||---------------------------------|
|-^-9----8-----7-------------||o--------------------------------|
|-^10--9---9-8-8-5p3p0-------||-----0---4p0---0-----0-----0-2p0-|
|----------------------5p3-5-||--/5---5-----5---------0h2-------|
|----------------------------||o----------------3s5-------------|
|----------------------------||---------------------------------|


   E S S S S S S e e S S S S    E S S S S S S a E S S S S S S
|----------------------------|--------------------------------|
|----------------------------|--------------------------------|
|----0---4p0---0-4-3-2p0---0-|----0---4p0---0-----0-----0-2p0-|
|-/5---5-----5-----------0---|-/5---5-----5---------0h2-------|
|----------------------------|----------------3s5-------------|
|----------------------------|--------------------------------|


  1.
  E   S S    S S    +S  S S S S S S S E
|----------------------------------------||
|-----3------3--------------------------o||
|-2b4---2pb4---2pb4r(2)p0-2p0---0-----0--||
|-----------------------------0---0h2----||
|---------------------------------------o||
|----------------------------------------||


  2.
  E   S S    S S    +S  S S S S S E E
|-------------------------------------||
|-----3------3------------------------||
|-2b4---2pb4---2pb4r(2)p0-2p0-----0---||
|-----------------------------2p0-----||
|-------------------------------------||
|-------------------------------------||


   Country Break
    N.C.
     S S  S S  S  S E  S S  S S  S  S E
||--------------------------------------|
||o-12p8-10p8-------8-12p8-10p8-------8-|
||------------10s12-------------10s12---|
||--------------------------------------|
||o-------------------------------------|
||--------------------------------------|


   S S  S S  S  S E  S  S S  S  S S S S
|----------------------------------------|
|-12p8-10p8-------8-------8-------8-8-8--|
|-----------10s12---10s12---10s12--------|
|----------------------------------------|
|----------------------------------------|
|----------------------------------------|


                                       1.
   S S  S S  S  S E  S S  S S  S  S E   S S S S S S S S S S S S S S E
|-------------------------------------|--------------------------------||
|-12p8-10p8-------8-12p8-10p8-------8-|-5p0-3p0-----------------------o||
|-----------10s12-------------10s12---|---------3p0-2p0-3p0-2p0--------||
|-------------------------------------|-------------------------2p0----||
|-------------------------------------|-------------------------------o||
|-------------------------------------|-----------------------------3--||


  2.
                              |-----3-----|
   E      E   S  S  S      S  S      +S   S  E  E E
|--------15-----------------------------------------|
|--------12--15-12-12-----12-------------------12---|
|-14b16-(14)-------14pb16----14pb16r(14)p12----12-0-|
|-------------------------------------------14------|
|---------------------------------------------------|
|---------------------------------------------------|


   S  S  S  S  S  S  S  S  S S  S S  S S  E
|----10----10----10----10----8----8----8-----|
|-13----13----12----12----11---11---10---10\-|
|--------------------------------------------|
|--------------------------------------------|
|--------------------------------------------|
|--------------------------------------------|


              |---3---|
  S S S S S S S   +S  S S S S S S S S S
|---3---3---3---------------------------|
|-6---6---5---5b6r(5)p3---3---3---3---3-|
|-----------------------5---5---4---4---|
|---------------------------------------|
|---------------------------------------|
|---------------------------------------|


  H.=H                                                    Q=120
                                                          G
  S S S S S S S S S S S S S S S S   S S S S S S E   +E  E  Q
|---------------------------------|-----------------------^3---|
|---------------------------------|-----------------------^3---|
|-2h3p2p0-2p0-0-0-----------------|-----------------------^0---|
|-----------------2h3p2p0-2p0-0-0-|-----------------------^0---|
|---------------------------------|-3h5p3p2-3p2-----------^2---|
|---------------------------------|-------------5b7r(5)-3-^3---|


                 Heavy Rock Riff
                  Moderate Rock Q=128
                  N.C.
 3/4             4/4
       Gtr III    Gtr III
                  PM----------------|
  +H.             S S S S E E S S S S  E    +E
|-(3)----------||---------------------------------|
|-(3)----------||---------------------------------|
|-(0)----------||---------------------[2]b4r(2)b4r|
|-(0)----------||---------------------------------|
|-(2)----------||-------------1-2-----------------|
|-(3)--/22\----||-0-1-1-2-3-3-----3-1-------------|
   Q     H


                        PM----------|
  S  S    +S  S S S S S S S S S S S E
|-------------------------------------|
|-3-----------------------------------|
|---[2]b4r(2)p0-2p0---0---------------|
|-------------------3---3-0-2-0-------|
|-------------------------------1-2---|
|-----------------------------------3-|


                                                            $
  N.C.                F5   D5 C#5   C5
                           Gtrs III, IV
  PM----------------|                                   ~~~
  S S S S E E S S S S Q    E. S +E  E   E       E       Q
|------------------------|----------------------------------|
|------------------------|----------------------------------|
|------------------------|-------------[3]b3.5-[3]b3.5------|
|---------------------3--|-7--6-(6)-5\-----------------[5]--|
|-------------1-2-----3--|-5--4-(4)-3\----------------------|
|-0-1-1-2-3-3-----3-1-1--|----------------------------------|


    N.C.
    PM----------------|  ~~~~~
    S S S S E E S S S S  Q
||------------------------------|
||o-----------------------------|
||----------------------[2]b4---|
||------------------------------|
||o-------------1-2-------------|
||--0-1-1-2-3-3-----3-1---------|


                      PM-------------
  S S   +S  S S S S S S S S S S S E
|-----------------------------------|
|-3---------------------------------|
|---2b4r(2)p0-2p0---0---------------|
|-----------------3---3-0-2-0-------|
|-----------------------------1-2---|
|---------------------------------3-|


                      F5
 -------------------|      PM----|     PM            ~
  S S S S E E S S S S Q    S S S S +E  E  E     E    Q
|------------------------|-------------------------------||
|------------------------|------------------------------o||
|------------------------|---------------[3]b4-[3]b4-----||
|---------------------3--|---------------------------5---||
|-------------1-2-----3--|-5-5-5-4-(4)-3----------------o||
|-0-1-1-2-3-3-----3-1-1--|-------------------------------||


   Heavy Rock Theme
          G5
    Gtr III
    H                S  S  S     +S   S  S  E
||------------------15--------------------------|
||o--------------------15-----------------------|
||------------------------14b16r(14)-12----12\--|
||--------------------------------------14------|
||o---------------------------------------------|
||----------------------------------------------|
|
|   Gtr IV
|   PM--|
|   S S S S +S  S E  e     E          E    +E
||----------------------------------------------|
||o---------------------------------------------|
||--------7-(7)---7--7----------------7----(7)\-|
||--0-5-5-5-(5)---5--5-----x----------5----(5)\-|
||o---------------------------------------------|
||----------------------------------------------|


                                                                  To Coda
         F5                                              C5        Bb5
  Q.               E  S  S  S     +S   S  S  E     W
|--------------------13--------------------------|--------------------------|
|----------------/10----13-----------------------|--------------------------|
|--------------------------12b14r(12)-10----10\--|--------------------------|
|----------------------------------------12------|--------------------------|
|------------------------------------------------|--------------------------|
|------------------------------------------------|--------------------------|
|
| PM---|                                           PM--|
| S  S S S +S  S   E  e     E          E    +E     S S S S +S  S E E E Q
|------------------------------------------------|--------------------------|
|------------------------------------------------|--------------------------|
|--------5-(5)-----5--5----------------5----(5)\-|-------5-(5)---5-3---3----|
|-0--3-3-3-(3)-----3--3-----x----------3----(3)\-|-------5-(5)---5-3---3----|
|------------------------------------------------|-5-7-7-----------1-x-1----|
|------------------------------------------------|--------------------------|


  1.
  N.C.
   |---3---|  |---3---|  |--3--|  |--3--|  |---3---|  |---3---|
   S  S    S  S  S    S  S  S  S  S  S  S  S  S    S  S  S    S  E     +E
|-18-15---18-15---------18-15-18-15-------18-15---18-15------------------------|
|---------------18---15-------------18-15---------------18---15-18b20r(18)b21\-|
|------------------------------------------------------------------------------|
|------------------------------------------------------------------------------|
|------------------------------------------------------------------------------|
|------------------------------------------------------------------------------|
|
|  PM---------------------------------------------------------------------------
|  S    S     S    S     E        E        S    S     S    S     E      E
|------------------------------------------------------------------------------|
|------------------------------------------------------------------------------|
|------------------------------------------------------------------------------|
|------------------------------------------------------------------------------|
|------------------------------------------------------------------------------|
|--0----1-----1----2-----3--------3--------0----1-----1----2-----3------3------|


         G5
  Q.               E  S  S  S     +S   S   S  E
|--------------------15---------------------------|
|----------------/12----15------------------------|
|--------------------------14b16r(14)-12-----12\--|
|-----------------------------------------14------|
|-------------------------------------------------|
|-------------------------------------------------|
|
|------|
| S  S S S +S  S   E  E     E         +E     +E
|-------------------------------------------------|
|-------------------------------------------------|
|--------7-(7)-----7--------7---------(7)----(7)\-|
|-0--5-5-5-(5)-----5--x-----5---------(5)----(5)\-|
|-------------------------------------------------|
|-------------------------------------------------|


         F5
  Q.               E  S  S  S     +S   S   S  E
|--------------------13---------------------------|
|----------------/10----13------------------------|
|----------------/10-------12b14r(12)-10-----10\--|
|-----------------------------------------12------|
|-------------------------------------------------|
|-------------------------------------------------|
|
| PM---|
| S  S S S +S  S   E  E     E         +E     +E
|-------------------------------------------------|
|-------------------------------------------------|
|--------5-(5)-----5--------5---------(5)----(5)\-|
|-0--3-3-3-(3)-----3--x-----3---------(3)----(3)\-|
|-------------------------------------------------|
|-------------------------------------------------|


         C5        Bb5        N.C.
                                 PM---------------|
  H.                   E  E    S S  S S  S S  S S  S a E   S S S E
|---------------------------|----------------------------------------||
|---------------------------|---------------------------------------o||
|------------------------/7-|-10-7-10-7-10-7-10-7-10-7s5---3-5p3-----||
|---------------------------|------------------------------------5---||
|---------------------------|---------------------------------------o||
|---------------------------|----------------------------------------||
|
| PM---|                       PM--------------------------------|
| S  S S S +S  S E E E Q       S S  S S  E    E    S   S S S E   E
|---------------------------|----------------------------------------||
|---------------------------|---------------------------------------o||
|--------5-(5)---5-3---3----|----------------------------------------||
|--------5-(5)---5-3---3----|----------------------------------------||
|-5--7-7-----------1-x-1----|---------------------------------------o||
|---------------------------|--0-1--1-2--3----3----0---1-1-2-3---3---||


  2.
  N.C.
   E       S  S  S  E    S  S     +S   S  S  S  S  E
|------------------12---------------------------------|
|---------12-13-15------15----------------------------|
|-14b16--------------------14b16r(14)p12----14----12\-|
|----------------------------------------14----14-----|
|-----------------------------------------------------|
|-----------------------------------------------------|
|
|  PM--------------------------------------------------
|  S    S  S  S  E    E     S      S   S  S  E     E
|-----------------------------------------------------|
|-----------------------------------------------------|
|-----------------------------------------------------|
|-----------------------------------------------------|
|-----------------------------------------------------|
|--0----1--1--2--3----3-----0------1---1--2--3-----3--|


         G5
  Q.               E  S  S  S     +S   S   S  E
|--------------------15---------------------------|
|----------------/12----15------------------------|
|--------------------------14b16r(14)-12-----12\--|
|-----------------------------------------14------|
|-------------------------------------------------|
|-------------------------------------------------|
|
|------|
| S  S S S +S  S   E  E     E         +E     +E
|-------------------------------------------------|
|-------------------------------------------------|
|--------7-(7)-----7--------7---------(7)----(7)\-|
|-0--3-3-5-(5)-----5--x-----5---------(5)----(5)\-|
|-------------------------------------------------|
|-------------------------------------------------|


         F5
  Q.               E  S  S  S     +S   S   S  E
|--------------------13---------------------------|
|----------------/10----13------------------------|
|----------------/10-------12b14r(12)-10-----10\--|
|-----------------------------------------12------|
|-------------------------------------------------|
|-------------------------------------------------|
|
| PM---|
| S  S S S +S  S   E  E     E         +E     +E
|-------------------------------------------------|
|-------------------------------------------------|
|--------5-(5)-----5--------5---------(5)----(5)\-|
|-0--3-3-3-(3)-----3--x-----3---------(3)----(3)\-|
|-------------------------------------------------|
|-------------------------------------------------|


        C5        Bb5      N.C.
  W                        H            Q.         E
|------------------------|---------------------------||
|------------------------|---------------------------||
|------------------------|---------------------------||
|------------------------|-------------20\---------x-||
|------------------------|-------------20\---------x-||
|------------------------|---------------------------||
|
| PM--|                    PM----------------------|
| S S S S +S  S E E E Q    S S S S E E  S  S S S E E
|------------------------|---------------------------||
|------------------------|---------------------------||
|-------5-(5)---5-3---3--|---------------------------||
|-------5-(5)---5-3---3--|---------------------------||
|-5-7-7-----------1-x-1--|---------------------------||
|------------------------|-0-1-1-2-3-3--0--1-1-2-3-3-||


 Heavy Rock Solo 1
    N.C.
  a  H.                E        +S   S
|--------------------------------------|
|---18----------------18-------(18)----|
|---17b19-------------17pb19r==(17)-15-|
|-x------------------------------------|
|--------------------------------------|
|--------------------------------------|
|
|    PM---------------------------------
|    E    E S S E E E  S     S   E
|--------------------------------------|
|--------------------------------------|
|--------------------------------------|
|--------------------------------------|
|----3----3-0h1h2-3-3--0h====1h==2-----|
|--------------------------------------|


    S  E     S  S  S   S  S  S  S  S  S  S  S  E
|-----------------------------------------------------|
|-----13----------13-----13-------------------18b20===|
|-/17------/17-17----/17----17-15----------15---------|
|---------------------------------17-15----15---------|
|---------------------------------------17------------|
|-----------------------------------------------------|
|
|---------------------------------------|
|   S  S S   S  S  S   S  S  S  S  S  S  E     E
|-----------------------------------------------------|
|-----------------------------------------------------|
|-----------------------------------------------------|
|-----------------------------------------------------|
|-----------------------------------------------------|
|---3--3-3---1--1--1---1--1--1--1--3--1--3------------|


   ~~~
         |-------5-------|  |--3--|
   Q     S  S    S    S  S  S  S  S  E      +Q
|-----------------------------------18b21==(18)----|
|-18r---15-18---15------15-15----15----------------|
|--------------------17-------17-------------------|
|--------------------------------------------------|
|--------------------------------------------------|
|--------------------------------------------------|
|
|  PM-----------------------------------------------
|  E  E  S    S    E        E        E       S S E
|--------------------------------------------------|
|--------------------------------------------------|
|--------------------------------------------------|
|--------------------------------------------------|
|--3--3--0h===1h===2--------3--------3-------0h1h2-|
|--------------------------------------------------|


                                                 ~~~~~
   +Q          Q            a   S  S  S  S      +Q
|-(18)r-------18b20-------(18)-15-18-15---------------------|
|---------------------------------------18b20==(18)r--------|
|-----------------------------------------------------------|
|-----------------------------------------------------------|
|-----------------------------------------------------------|
|-----------------------------------------------------------|
|
|--------------------------------------------------------|
|   S   S S S  S    S S S       S  S  S  S       S   S S S
|-----------------------------------------------------------|
|-----------------------------------------------------------|
|-----------------------------------------------------------|
|---5---5-5-4--4----4-3-3-------3---------------------------|
|----------------------------------5--4--4-------3---3-3-1--|
|-----------------------------------------------------------|


                                    |---3----|  |3-|
   a  S  S  S  S      +E      S  S  S  S     S  S  E     E    S  S
|----15----------------------15----------------15-------15---------|
|-18----18p15----------------15-18p15-------15----------15---18p15-|
|-------------17b19==(17)r------------17b19-------17b19------------|
|------------------------------------------------------------------|
|------------------------------------------------------------------|
|------------------------------------------------------------------|
|
|     PM------------------------------------------------------------
|     E     E          S   S  E     E           E        S S  E
|------------------------------------------------------------------|
|------------------------------------------------------------------|
|------------------------------------------------------------------|
|------------------------------------------------------------------|
|-----3-----3----------0h==1h=2-----3-----------3--------0h1h=2----|
|------------------------------------------------------------------|


                                              ~~~~~~~
   S     S  S      +S   S   S  S  S  S  S  S  S  +E   +E
|---------------------------------------------------------|
|-------15------------------------------------------------|
|-17b19----17pb19r(17)p15-/17-17----15-17-----------------|
|--------------------------------17-------17-17-(17)-(17)-|
|---------------------------------------------------------|
|---------------------------------------------------------|
|
|-----------------------------------------------|
|  S     S  S       S   S   S  S  S  S  S  S  S   E    E
|---------------------------------------------------------|
|---------------------------------------------------------|
|---------------------------------------------------------|
|---------------------------------------------------------|
|---------------------------------------------------------|
|--3-----3--3-------1---1---1--1--1--1--1--3--1---3-------|


                                                            ~~~~~              ~~~~~
   E  S S  E       +E   Q       S     +S   E    S  S  S  S  Q      S  S  S  S  Q
|--------------------------------------------|---------------------------------------|
|---------17b18---(17)-17b18---17b18r(17)p15-|-15-15-------18b20--15-15-------18b20--|
|-15----x------------------------------------|-15-15----15--------15-15-17-15--------|
|-15-17-x------------------------------------|-------17-15--------15----17-15--------|
|-------x------------------------------------|---------------------------------------|
|--------------------------------------------|---------------------------------------|
|
|  PM-------------------------------------|                 ~~~~~              ~~~~~
|  E  E    S    S   E   E    E  S      S   E    S  S  E     Q      S  S  E     Q
|--------------------------------------------|---------------------------------------|
|--------------------------------------------|---------------------------------------|
|--------------------------------------------|--------------3b5----------------3b5---|
|--------------------------------------------|--x--0--3------------x--0--3-----------|
|--3--3----0h===1h==2---3----3--0h=====1h==2-|---------------------------------------|
|--------------------------------------------|---------------------------------------|


                            F5     F#5
   S  S  S  S  Q      Q        +E      +S   S
|-------------18b20--18b21====(18)r===(18)p15---||
|----15-----------------------------------------||
|-15-15----15-----------------------------------||
|-15----17-15-----------------------------------||
|-----------------------------------------------||
|-----------------------------------------------||
|
|              ~~~~~
|  S  S  E     Q      E     E  +S  E.
|-----------------------------------------------||
|-----------------------------------------------||
|--------------3b5----------5--(5)-6------------||
|--x--0--3------------0-----3--(3)-4------------||
|-----------------------------------------------||
|-----------------------------------------------||


 Interlude
  Gm
  Gtr III
                              |--------7--------|
   Q         +Q    +E   S  S  S  S  S  S  S  S  S
|-18b21=====(18)--(18)r18p15-15-18-15-------18-15-|
|-------------------------------------18-15-------|
|-------------------------------------------------|
|-------------------------------------------------|
|-------------------------------------------------|
|-------------------------------------------------|
|
|  E     E    Q     H
|--6-----6\---------------------------------------|
|--8-----8\---------------------------------------|
|--5-----5\---------------------------------------|
|--3-----3\---------------------------------------|
|-------------------------------------------------|
|-------------------------------------------------|


                                                   F5   F#5
                                             ~~~~~~~~~~~~~~~~~
   |--3--|  |--3--|  |--------7--------|  |3-|
   S  S  S  S  S  S  S  S  S  S  S  S  S  S  E      +E   +Q
|----------------------------------------------------------------|
|-18-15-------18-15----------------------------------------------|
|-------17-15-------17-15-------17-15-------17b19==(17)-(17)r----|
|--------------------x----17-15-------17-15----------------------|
|----------------------------------------------------------------|
|----------------------------------------------------------------|
|
|  H                                      E          E   +S   E.
|----------------------------------------------------------------|
|----------------------------------------------------------------|
|----------------------------------------------------5---(5)--6--|
|----------------------------------------------------3---(3)--4--|
|----------------------------------------------------------------|
|----------------------------------------------------------------|


  G5                   F5    F#5
  W             W
|-------------|-----------------|
|-------------|-----------------|
|-------------|-----------------|
|-------------|-----------------|
|-------------|-----------------|
|-------------|-----------------|
|
| E E Q  H      H    E E +S  E.
|-------------|-----------------|
|-------------|-----------------|
|-5-5---------|--------5-(5)-6--|
|-3-3---------|--------3-(3)-4--|
|-------------|-----------------|
|-------------|-----------------|


  G5                                              F5    F#5
                  T
  Q      +E  S S  H           +Q    +E  E     +H
|--------------------------|-------------------------------|
|-3------(3)-3-------------|-------------------------------|
|-5b7====(5)r5p3-21b24=====|=(21)--(21)-5pb7==(5)r=========|
|--------------------------|-------------------------------|
|--------------------------|-------------------------------|
|--------------------------|-------------------------------|
|
| E    E  Q       H            H               E  E +S  E.
|--------------------------|-------------------------------|
|--------------------------|-------------------------------|
|-5----5-------------------|----------------------5-(5)-6--|
|-3----3-------------------|----------------------3-(3)-4--|
|--------------------------|-------------------------------|
|--------------------------|-------------------------------|


  G5                     F5    F#5
   E  e Q  H      W
|---------------|-----------------|
|---------------|-----------------|
|-(3)p0---------|-----------------|
|---------------|-----------------|
|---------------|-----------------|
|---------------|-----------------|
|
|  E  E Q  H      H    E E +S  E.
|---------------|-----------------|
|---------------|-----------------|
|--5--5---------|--------5-(5)-6--|
|--3--3---------|--------3-(3)-4--|
|---------------|-----------------|
|---------------|-----------------|


  G5
   PM--------------------|
   |------5------|  |-----5-----|  |-----5------|  |--3--|
   S  S  S    S  S  S  S  S  S  S  S  S  S  S   S  S  S  S  T  T  T  T
|----------------------------------------------------------------------|
|-------------------------------------------------------------15----15-|
|---------------------------------------------/15-18-15-18-18-18-18----|
|---------------------------------15----15-17--------------------------|
|------------------15----15-17-17----17--------------------------------|
|-15-15-17---18-18----18-----------------------------------------------|
|
|  E       E        Q              H
|----------------------------------------------------------------------|
|----------------------------------------------------------------------|
|--5-------5-----------------------------------------------------------|
|--3-------3-----------------------------------------------------------|
|----------------------------------------------------------------------|
|----------------------------------------------------------------------|


                                           F5       F#5
   |--3--|  |---3---|  |--3--|
   S  S  S  S   S   S  S  S  S  E      +E   +E.      E.
|----------15------15-15S18S20-20b23==(20)-(20)r====20s|
|-18-15-18----[18]-------------20b23==(20)-(20)r====20s|
|------------------------------------------------------|
|------------------------------------------------------|
|------------------------------------------------------|
|------------------------------------------------------|
|
|  H                                    E    E  +S   E.
|------------------------------------------------------|
|------------------------------------------------------|
|--------------------------------------------5--(5)--6-|
|--------------------------------------------3--(3)--4-|
|------------------------------------------------------|
|------------------------------------------------------|


  G5             G5 F#G5F#G5 G#5
                          TP
  E  E Q  H      H.       Q
|-x\-----------|---------------||
|-x\-----------|---------------||
|--------------|---------------||
|--------------|----------x\---||
|--------------|----------x\---||
|--------------|----------x\---||
|
|                |-4:3--|
| E  E Q  H      Q  Q Q Q E  E
|--------------|---------------||
|--------------|---------------||
|-5--5---------|---------------||
|-3--3---------|---------------||
|--------------|-5--4-5-4-5--6-||
|--------------|-3--2-3-2-3--4-||


 Heavy Rock Solo 2
  N.C.(AD5      C5    D5  C      N.C.(A) D5       C5    D5  C
  Gtr III
                                                        ~~~~~~
  H               Q       Q      E.      S  Q       S S E   Q
|------------------------------|-------------------------------|
|-8---------------8------------|-------------------------------|
|-7b9-------------7b9-----7b9--|-7b9-----7--7b9-----5h6--------|
|------------------------------|------------------------7---7--|
|------------------------------|-------------------------------|
|------------------------------|-------------------------------|
|
| Gtr IV
| PM--|                   ~~~    PM--|                      ~
| S   E S +S  S E E   E a Q      S   S S S +S   S E E   E a Q
|------------------------------|-------------------------------|
|------------------------------|-------------------------------|
|-------7-(7)---5-----7-4h5----|---------7-(7)----5-----7-4h5--|
|-------7-(7)---5-----7--------|-------x-7-(7)----5-----7------|
|-0---0-----------x------------|-0---0--------------x----------|
|------------------------------|-------------------------------|


  N.C.(A)   D5       C5      D5       C
               ~~~~    PM              ~~~~
                       |-3-|
  E   E       +Q       S S S S S      +Q
|----------------------5-----8--------------|
|-----8b10====(8)r-------8p5---7b8====(7)r--|
|-x-----------------------------------------|
|-x-----------------------------------------|
|-------------------------------------------|
|-------------------------------------------|
|
| PM|                                  ~~~~
| S S S     S +S   S E E     E      a  Q
|-------------------------------------------|
|-------------------------------------------|
|-----------7-(7)----5-------7------4h=5----|
|-----x-----7-(7)----5-------7--------------|
|-0-0------------------x--------------------|
|-------------------------------------------|


  N.C.
                                       ~~~~~~~
                |-3-|       |---3----|
  S S   S S   E S S S S   S S    +S  S E  a  E
|-5-----------5---------------------------------|
|---7b8-5-----5-5-8p5-----5---------------------|
|---------7b9---------7b9---7pb9r(7)p5----------|
|--------------------------------------7-(7)s5\-|
|-----------------------------------------------|
|-----------------------------------------------|
|
| PM---------------------------------------------
| E     S S   E E     S   S E          E     E
|-----------------------------------------------|
|-----------------------------------------------|
|-----------------------------------------------|
|-----------------------------------------------|
|-----------------------------------------------|
|-3-----2-2---3-3-----2---2-3----------4-----5--|


  N.C.(A)       D5          C5             D5      C
  |--3--|          |--3---|        |--3--|          |---------7----------|
  S S   S  E       S  S   S  E     S  S  S  E       S  S   S  +S   S  S  S
|--------------------------------------------------------/14-(14)-11--------|
|-7-------10b12---10p=7-----12b14-12p10----15b17---13----------------14-11--|
|---9---7-----------------9-------------12------------14--------------------|
|---------------------------------------------------------------------------|
|---------------------------------------------------------------------------|
|---------------------------------------------------------------------------|
|
|-----|                                             ~~
| S   S    S    S +S    S    E     E        E    a  Q
|---------------------------------------------------------------------------|
|---------------------------------------------------------------------------|
|---------------7-(7)--------5--------------7----4h=5-----------------------|
|----------x----7-(7)--------5--------------7-------------------------------|
|-0---0----------------------------x----------------------------------------|
|---------------------------------------------------------------------------|


  N.C.(A)   D5              C5               D5    C
                                 PM
    |3-|  |--3---|  |--3--|   |3-|  |-----3------|  |---------7---------|
    E  S  S  S   S  S  S  S   E  S  S  S   E  S  S  S  S  S  S  S  +S   S
|-/15-12-------/17-15-------/19-17-------/20-------20-17-------------------|
|--------15-13--------17-15--------20-17-----20p17-------20-17---------20p=|
|--------------------------------------------------------------19-(19)-----|
|--------------------------------------------------------------------------|
|--------------------------------------------------------------------------|
|--------------------------------------------------------------------------|


  N.C.(A)     D5            C5          D5        C
                                                         ~~~
   |--3--|  |-3-|   |--3--|                        |3-|
   S  S  S  S   E   S  S  S  E      +E   +E    a   S  E  E
|-------------------------------------------------17-------|
|-17------------------------20b24==(20)-(20)r(20)----20-20-|
|----19--------19--17--------------------------------------|
|-------19-19-(19)----19-17--------------------------------|
|----------------------------------------------------------|
|----------------------------------------------------------|


  N.C.
 ~~~~~~
   +E   +E    S  E     T  T  S  S  S  S  a      +S   S  E
|------------------------17-------------------------------|
|-(20)-(20)\-17-------17----20p17----17-------------------|
|---------------19b21-------------19----19pb22r(19)p17----|
|------------------------------------------------------19-|
|---------------------------------------------------------|
|---------------------------------------------------------|


  N.C.(A)  D5       C5          D5    C
   S  S  S  S  S  S  S  S  S  S  S  S  +S   S  E
|----------------------------------------------------|
|-------17-------17-------17-------17-(17)----19b20==|
|-17h18----17h18----17-18----17-18---------18--------|
|----------------------------------------------------|
|----------------------------------------------------|
|----------------------------------------------------|


  N.C.(AD5     C5          D5      C
                                    ~~
   +Q     Q       a   S  S  E       Q
|--------------------------------------|
|-(19)r--19b20r=(19)-17----------------|
|-----------------------19-17b17.5-----|
|----------------------------------19--|
|--------------------------------------|
|--------------------------------------|


  N.C.(AD5           C5        D5    C
                 ~~~~~
                       |--3--|        |3-|
   +S    E.     +Q     S  S  S  E     S  E  S  S
|---------------------------------------17-------|
|-------20b22==(20)r--17-20p17-------17----20p17-|
|------------------------------19b21-------------|
|-(19)\------------------------------------------|
|------------------------------------------------|
|------------------------------------------------|


  N.C.
                        TP
         |-----3-----|
   S  S  S      +S   S  E  S  S  S  S  S  S  E  a  E
|-----------------------------------------------------|
|----17----------------------17-17-17-17-17-17\-------|
|-19----19pb21r(19)p17-19-19-17-17-17-17-17-17\-4s14--|
|-----------------------------------------------------|
|-----------------------------------------------------|
|-----------------------------------------------------|


  N.C.(A)  D5         C5    D5    C
            ~~~~~~~    ~~    ~~    ~~    ~~~
   a  E  S  S  +S   S  E  S  E  S  E  S  S
|-15h17----17-(17)----17----17----17----17-|
|------------------------------------------|
|-------14---------14----14----14----14----|
|------------------------------------------|
|------------------------------------------|
|------------------------------------------|


  N.C.(A) D5               C5            D5    C
 ~~~~~~                                         ~~~~~~~
               |--3--|            |--3---|
   +S   S  E   S  S  S      +E   +E    E E     +E  +S  +S
|-(17)----17/----20-20b22==(20)-(20)r\----------------------|
|--------------------------------------0-8b10==(8)-(8)-(8)r-|
|------14-----17-----------------------0--------------------|
|-----------------------------------------------------------|
|-----------------------------------------------------------|
|-----------------------------------------------------------|


  N.C.(AD5          C5              D5  N.C.(C)
  |-3-| |-3-| |------6------|           |-----7-----|
  S S S E   S S S S S   +S  S a S S E   S S S S S S S
|-5---------------------------------------------------|
|---8-5-----5-8p5---7b8r(7)-5-5h7-------8p5---5-8p5---|
|-------7b9-------7-7b8r(7)-5-5h7---7b9-----7-------7-|
|---------------------------------7-------------------|
|-----------------------------------------------------|
|-----------------------------------------------------|


  N.C.
                                         ~~~~~~~  PM
  |-----7-----| |----6----|     |--3---|
  S S S S S S S S S S S S S    +S  +S  S E  a  S  S E
|-----------------------------------------------------||
|-5h8p5---5-8p5---5-8p5-5-----------------------------||
|-------7-------7---------7b9==(7)r(7)p5------------x-||
|----------------------------------------7-(7)s9S12-x-||
|-----------------------------------------------------||
|-----------------------------------------------------||


 Bridge
  B5        D5        C5             N.C.
  Gtr III
              ~~~~~
                                                     |---3---|
   Q.        +Q.       +S    E.       +Q      Q      S  S    S  E  E  E
|----------------------------------|----------------------------------------|
|---------------------------13b15==|=(13)r---13-----10h13p==10----10--------|
|-12b14=====(12)r-----(12)\--------|---------------------------12----12b14==|
|----------------------------------|----------------------------------------|
|----------------------------------|----------------------------------------|
|----------------------------------|----------------------------------------|
|
| Gtr IV
|                                      PM----------------------------|
|  Q      E   E   E E   Q              E   E  E S S  S    S     E  E  E
|----------------------------------|----------------------------------------|
|----------------------------------|----------------------------------------|
|--4----------7-----7---5----------|----------------------------------------|
|--4----------7-----7---5----------|----------------------------------------|
|--2----------5-----5---3----------|----------------------------------------|
|----------------------------------|---3---3--5-5-2--3----3-----4--5--5-----|


  B5      D5            C5
    ~~~~                        PM-|
   +H        +E   +E     E      S   S
|-----------------------13b15----------|
|--------------------------------------|
|-(12)------(12)-(12)r\----------------|
|-----------------------------(12)-(0)-|
|--------------------------------------|
|--------------------------------------|
|
|   Q   E E   E    E     Q
|--------------------------------------|
|--------------------------------------|
|---4-----7--------7-----5-------------|
|---4-----7--------7-----5-------------|
|---2-----5--------5-----3-------------|
|--------------------------------------|


  N.C.                                             B5        D5        C5
                                             ~~                  ~~~~~
   Q        a   Q          a   S  S  E       Q      H           +Q      +S   S  E
|-10b12---(10)-------------------10--------------|------------------------------------|
|--------------13b15-----(13)-13----13b13.5-10---|-----------------------------12b13==|
|------------------------------------------------|-12b14=======(12)r---(12)\-x--------|
|------------------------------------------------|---------------------------x--------|
|------------------------------------------------|------------------------------------|
|------------------------------------------------|------------------------------------|
|
|  PM------------------------------------------|
|  E    E       E    S S       S  S  E       E E    Q      E E   E   E   Q
|------------------------------------------------|------------------------------------|
|------------------------------------------------|------------------------------------|
|------------------------------------------------|--4--------7-------7---5------------|
|------------------------------------------------|--4--------7-------7---5------------|
|------------------------------------------------|--2--------5-------5---3------------|
|--3----3-------5----5-2-------3--3--4-------5-5-|------------------------------------|


  N.C.
   +E    S  S  S  S      S  S  S      +S   S  S  E  E
|-------10-11-12-12pb14-10-10-------------------------|
|-(12)r-----------------------12pb13r(12)-10----12-10-|
|--------------------------------------------12-------|
|-----------------------------------------------------|
|-----------------------------------------------------|
|-----------------------------------------------------|
|
|   PM---------------------------------------------|
|   E    E     E         S  S  S       S   E     E  E
|-----------------------------------------------------|
|-----------------------------------------------------|
|-----------------------------------------------------|
|-----------------------------------------------------|
|-----------------------------------------------------|
|---3----3-----5---------5--2--3-------3---4-----5--5-|


  B5
            ~~~~~              PM|
                        |--3---|
   Q       +H          +S   S  S E
|--------------------------------0-|
|-----------------------------12---|
|-12b14===(12)r-------(12)\-x------|
|----------------------------------|
|----------------------------------|
|----------------------------------|
|
|  Q        E   E E Q            E
|----------------------------------|
|----------------------------------|
|--4------------4---4------------4-|
|--4------------4---4------------4-|
|--2------------2---2------------2-|
|----------------------------------|


  C5                              N.C.       F5   N.C.        F5
            ~~~~~          PM-------------|        PM------|
   Q       +H          E   S  S    E    S  S  Q    S  S  S  S  Q
|-------------------------------|----------------------------------|
|-12------(12)---------x\-------|------------13---------------13---|
|-14b16===(14)r--------x\-------|------10-10-10------10-10-10-10---|
|-------------------------12-10-|-12---------10---12----------10---|
|-------------------------------|----------------------------------|
|-------------------------------|----------------------------------|
|
|                                  PM-----|   ~~~  PM------|   ~~~
|  Q        E   E E Q.             S S  S  S  Q    S  S  S  S  Q
|-------------------------------|----------------------------------|
|-------------------------------|----------------------------------|
|--5------------5---5-----------|------------[5]--------------[3]--|
|--5------------5---5-----------|--0-3--3--3-------0--3--3--3------|
|--3------------3---3-----------|----------------------------------|
|-------------------------------|----------------------------------|


                                               Country Interlude
                                                G5
                                                Gtr III
   W                                             E E +H.
                                                 | |  |
                                                 / /  /

                                                Gtr V
        PM|          PM          PM|
   E    S  S  S   S  S  S  S  S  S  S  Q         E E  S S S S S S S S S S S S
|--------------------------------------------||-------------------------------|
|-13---------13--13-------13-13-------13\----||-------------------------------|
|-10---------10--10----10-10-10----10-10\----||----0--5p0---3p0-3p0---3p0---0-|
|-10---12-12-10--10-12-10-10-10-12----10\----||-/5--------5---------5-----5---|
|--------------------------------------------||-------------------------------|
|--------------------------------------------||-------------------------------|
|
|                                               Gtr III
|  PM-----|   ~~~
|  S S  S  S  Q            E     E    +S  E.     W
|--------------------------------------------||-^3----------------------------|
|--------------------------------------------||-^3----------------------------|
|------------[5]-----------------5----(5)-6--||-^4----------------------------|
|--0-3--3--3---------------0-----3----(3)-4--||-^5----------------------------|
|--------------------------------------------||-------------------------------|
|--------------------------------------------||-------------------------------|


                                  1.,2.,3.
    N.C.(F7)                       C     Fadd9       G5
     E E S S S S  S  S S S E S S   E E E E E E E E   E E E E S E S +S  S S S
||-------------------------------|-----------------|-------------------------|
||o------------------------------|-----------------|-------------------------|
||-----0-4p0---3p(0)-2p0---0-----|-----0-----0-----|-----0-------0-(0)-------|
||--/3-------3-----------3---3p0-|---2-------------|---0---0-----------0-2p0-|
||o------------------------------|-3-------0-----0-|---------0h2-------------|
||-------------------------------|-------1-----2---|-3-----------------------|


                                   4.
  N.C.(Gm)                         C     F
   E E S S S S S S S S 
comments
We did not receive enough feedback on this tab! Please rate:
1 2 3 4 5
2 comments total.
0 reply
SpeedDemon335 wrote on May 6 2008, 01:42 pm

...damn

0 reply
Iheartnirvana wrote on January 21 2009, 10:36 am

good tab, involves alot of circular and chicken pickin'

I want to post or [tab]
guest
You may want to rate the tab now too:
select rating
Please do not post tabs as comments. Select "correction" instead!