Oops, an error
Loading. Please wait.

Just The Tip Tab

5,577 views 6 this week
1 commentread comment
1 2 3 4 5
excellent!
x 2
Autoscroll
+/-
esc
set tempo
stop
Contributor
Difficulty
Tuning
intermediate
D# G# C# F# A# D#
WARNING: You are trying to view
                                    content from Ultimate-Guitar.com
                                    in an unauthorized application,
                                    which is prohibited.

                                    Please use an official Ultimate
                                    Guitar Tabs application for iPhone,
                                    iPad or Android to access legitimate
                                    chords, guitar, bass, and drum tabs
                                    from Ultimate-Guitar.com database.

                                    Type "ultimate guitar tabs" in Apple
                                    App Store's or Android Market's
                                    search to find the application.
Tabbed by: Mark Bradshaw
Email: Lwrufiog310@hotmail.com

Tuning: Half-Step Down


Alright, this is my favorite song off of the album "Phoenix". This song/tab has a lot of
so i put everything down in the exact order it is in the song and showed how many times
is played. You should be able to scroll through the tab and follow it exactly with the 
If you have any questions either leave a comment or email me. Thanks.


MATTY!!!

Intro
-----

(Start With slide down the neck)
e|------------------------------------------------------------|
B|------------------------------------------------------------|
G|------------------------------------------------------------|
D|------5-----4h5-^----5-----4h5------5-----4h5---------------|
A|----------------3--3---3-3-----^--------------0-(0)-2h3-2---|
E|--0-0---0-0--------.---.-.-----3--3---3-3-----------------3-|
    . .   . .                       .   . .
e|------------------------------------------------------------|
B|------------------------------------------------------------|
G|------------------------------------------------------------|
D|------5-----4h5-^----5-----4h5------5-----4h5---------------|
A|----------------3--3---3-3-----^--------------0-(0)-2h3-2---|
E|--0-0---0-0--------.---.-.-----3--3---3-3-----------------3-|
    . .   . .                       .   . .
e|------------------------------------------------------------|
B|------------------------------------------------------------|
G|------------------------------------------------------------|
D|------5-----4h5-^----5-----4h5------5-----4h5---------------|
A|----------------3--3---3-3-----^--------------0-(0)-2h3-2---|
E|--0-0---0-0--------.---.-.-----3--3---3-3-----------------3-|
    . .   . .                       .   . .
e|------------------------------------------------------------|
B|------------------------------------------------------------|
G|------------------------------------------------------------|
D|------5-----4h5-^----5-----4h5------5-----4h5---------------|
A|----------------3--3---3-3-----^--------------0-(0)-2h3-2---|
E|--0-0---0-0--------.---.-.-----3--3---3-3-----------------3-|
    . .   . .                       .   . .

End of Intro
------------

e|-------------------------------|
B|-------------------------------|
G|-9-9-x-9-9-9-x-9-9-9-x-9-9-9-9-|
D|-x-x-x-x-x-x-x-x-x-x-x-x-x-x-x-|
A|-7-7-x-7-7-7-x-7-7-7-x-7-7-7-7-|
E|-------------------------------|

Verse
-----
*Upstrokes with emphasis on the higher notes
e|-x-7-x-7-x-7-x-7-x-7-x-7-x-7-x-7-x-8-x-8-x-8-8-8-x-7-x-7-x-7-7-7-|
B|-x-8-x-8-x-8-x-8-x-8-x-8-x-8-x-8-x-8-x-8-x-8-8-8-x-7-x-7-x-7-7-7-|
G|-x-9-x-9-x-9-x-9-x-9-x-9-x-9-x-9-x-9-x-9-x-9-9-9-x-8-x-8-x-8-8-8-|
D|-x-9-x-9-x-9-x-9-x-9-x-9-x-9-x-9-x10-x10-x101010-x-9-x-9-x-9-9-9-|
A|-x-7-x-7-x-7-x-7-x-7-x-7-x-7-x-7-x10-x10-x101010-x-9-x-9-x-9-9-9-|
E|---------------------------------x-8-x-8-x-8-8-8-x-7-x-7-x-7-7-7-|

e|-x-7-x-7-x-7-x-7-x-7-x-7-x-7-x-7-x-8-x-8-x-8-8-8-x-7-x-7-x-7-7-7-|
B|-x-8-x-8-x-8-x-8-x-8-x-8-x-8-x-8-x-8-x-8-x-8-8-8-x-7-x-7-x-7-7-7-|
G|-x-9-x-9-x-9-x-9-x-9-x-9-x-9-x-9-x-9-x-9-x-9-9-9-x-8-x-8-x-8-8-8-|
D|-x-9-x-9-x-9-x-9-x-9-x-9-x-9-x-9-x10-x10-x101010-x-9-x-9-x-9-9-9-|
A|-x-7-x-7-x-7-x-7-x-7-x-7-x-7-x-7-x10-x10-x101010-x-9-x-9-x-9-9-9-|
E|---------------------------------x-8-x-8-x-8-8-8-x-7-x-7-x-7-7-7-|

e|-x-7-x-7-x-7-x-7-x-7-x-7-x-7-x-7-x-8-x-8-x-8-8-8-x-7-x-7-x-7-7-7-|
B|-x-8-x-8-x-8-x-8-x-8-x-8-x-8-x-8-x-8-x-8-x-8-8-8-x-7-x-7-x-7-7-7-|
G|-x-9-x-9-x-9-x-9-x-9-x-9-x-9-x-9-x-9-x-9-x-9-9-9-x-8-x-8-x-8-8-8-|
D|-x-9-x-9-x-9-x-9-x-9-x-9-x-9-x-9-x10-x10-x101010-x-9-x-9-x-9-9-9-|
A|-x-7-x-7-x-7-x-7-x-7-x-7-x-7-x-7-x10-x10-x101010-x-9-x-9-x-9-9-9-|
E|---------------------------------x-8-x-8-x-8-8-8-x-7-x-7-x-7-7-7-|

e|-x-7-x-7-x-7-x-7-x-7-x-7-x-7-x-7-x-8-x-8-x-8-8-8-x-7-x-7-x-7-7-7-|
B|-x-8-x-8-x-8-x-8-x-8-x-8-x-8-x-8-x-8-x-8-x-8-8-8-x-7-x-7-x-7-7-7-|
G|-x-9-x-9-x-9-x-9-x-9-x-9-x-9-x-9-x-9-x-9-x-9-9-9-x-8-x-8-x-8-8-8-|
D|-x-9-x-9-x-9-x-9-x-9-x-9-x-9-x-9-x10-x10-x101010-x-9-x-9-x-9-9-9-|
A|-x-7-x-7-x-7-x-7-x-7-x-7-x-7-x-7-x10-x10-x101010-x-9-x-9-x-9-9-9-|
E|---------------------------------x-8-x-8-x-8-8-8-x-7-x-7-x-7-7-7-|

Pre Chorus
----------

e|---------------------------------------------------------|
B|---------------------------------------------------------|
G|---------------------------------------------------------|
D|-2-2-4/5-4-----2-2-4/5-4-----2-2-4/5-4-------------------|
A|-2-2-2/3-2--5--2-2-2/3-2--5--2-2-2/3-2--5------(slide)---|
E|-0-0--------3--0-0--------3--0-0--------3---////////////-|

Chorus
------

e|--------------------------------------------------------------------|
B|--------------------------------------------------------------------|
G|-9-9-9-9-9-9-9-9------------------------------------5-5-5-5-5-5-5-5-|
D|-9-9-9-9-9-9-9-9--5-5-5-5-5-5-5-5--7-7-7-7-7-7-7-7--5-5-5-5-5-5-5-5-|
A|-7-7-7-7-7-7-7-7--5-5-5-5-5-5-5-5--7-7-7-7-7-7-7-7--3-3-3-3-3-3-3-3-|
E|-0-0-0-0-0-0-0-0--3-3-3-3-3-3-3-3--5-5-5-5-5-5-5-5------------------|

e|--------------------------------------------------------------------|
B|--------------------------------------------------------------------|
G|-9-9-9-9-9-9-9-9------------------------------------5-5-5-5-5-5-5-5-|
D|-9-9-9-9-9-9-9-9--5-5-5-5-5-5-5-5--7-7-7-7-7-7-7-7--5-5-5-5-5-5-5-5-|
A|-7-7-7-7-7-7-7-7--5-5-5-5-5-5-5-5--7-7-7-7-7-7-7-7--3-3-3-3-3-3-3-3-|
E|-0-0-0-0-0-0-0-0--3-3-3-3-3-3-3-3--5-5-5-5-5-5-5-5------------------|

Intro
-----

e|------------------------------------------------------------|
B|------------------------------------------------------------|
G|------------------------------------------------------------|
D|------5-----4h5-^----5-----4h5------5-----4h5---------------|
A|----------------3--3---3-3-----^--------------0-(0)-2h3-2---|
E|--0-0---0-0--------.---.-.-----3--3---3-3-----------------3-|
    . .   . .                       .   . .
e|------------------------------------------------------------|
B|------------------------------------------------------------|
G|------------------------------------------------------------|
D|------5-----4h5-^----5-----4h5------5-----4h5---------------|
A|----------------3--3---3-3-----^--------------0-(0)-2h3-2---|
E|--0-0---0-0--------.---.-.-----3--3---3-3-----------------3-|
    . .   . .                       .   . .

End of Intro
------------

e|-------------------------------|
B|-------------------------------|
G|-9-9-x-9-9-9-x-9-9-9-x-9-9-9-9-|
D|-x-x-x-x-x-x-x-x-x-x-x-x-x-x-x-|
A|-7-7-x-7-7-7-x-7-7-7-x-7-7-7-7-|
E|-------------------------------|

Verse
-----
*Upstrokes with emphasis on the higher notes
e|-x-7-x-7-x-7-x-7-x-7-x-7-x-7-x-7-x-8-x-8-x-8-8-8-x-7-x-7-x-7-7-7-|
B|-x-8-x-8-x-8-x-8-x-8-x-8-x-8-x-8-x-8-x-8-x-8-8-8-x-7-x-7-x-7-7-7-|
G|-x-9-x-9-x-9-x-9-x-9-x-9-x-9-x-9-x-9-x-9-x-9-9-9-x-8-x-8-x-8-8-8-|
D|-x-9-x-9-x-9-x-9-x-9-x-9-x-9-x-9-x10-x10-x101010-x-9-x-9-x-9-9-9-|
A|-x-7-x-7-x-7-x-7-x-7-x-7-x-7-x-7-x10-x10-x101010-x-9-x-9-x-9-9-9-|
E|---------------------------------x-8-x-8-x-8-8-8-x-7-x-7-x-7-7-7-|

e|-x-7-x-7-x-7-x-7-x-7-x-7-x-7-x-7-x-8-x-8-x-8-8-8-x-7-x-7-x-7-7-7-|
B|-x-8-x-8-x-8-x-8-x-8-x-8-x-8-x-8-x-8-x-8-x-8-8-8-x-7-x-7-x-7-7-7-|
G|-x-9-x-9-x-9-x-9-x-9-x-9-x-9-x-9-x-9-x-9-x-9-9-9-x-8-x-8-x-8-8-8-|
D|-x-9-x-9-x-9-x-9-x-9-x-9-x-9-x-9-x10-x10-x101010-x-9-x-9-x-9-9-9-|
A|-x-7-x-7-x-7-x-7-x-7-x-7-x-7-x-7-x10-x10-x101010-x-9-x-9-x-9-9-9-|
E|---------------------------------x-8-x-8-x-8-8-8-x-7-x-7-x-7-7-7-|

e|-x-7-x-7-x-7-x-7-x-7-x-7-x-7-x-7-x-8-x-8-x-8-8-8-x-7-x-7-x-7-7-7-|
B|-x-8-x-8-x-8-x-8-x-8-x-8-x-8-x-8-x-8-x-8-x-8-8-8-x-7-x-7-x-7-7-7-|
G|-x-9-x-9-x-9-x-9-x-9-x-9-x-9-x-9-x-9-x-9-x-9-9-9-x-8-x-8-x-8-8-8-|
D|-x-9-x-9-x-9-x-9-x-9-x-9-x-9-x-9-x10-x10-x101010-x-9-x-9-x-9-9-9-|
A|-x-7-x-7-x-7-x-7-x-7-x-7-x-7-x-7-x10-x10-x101010-x-9-x-9-x-9-9-9-|
E|---------------------------------x-8-x-8-x-8-8-8-x-7-x-7-x-7-7-7-|

e|-x-7-x-7-x-7-x-7-x-7-x-7-x-7-x-7-x-8-x-8-x-8-8-8-x-7-x-7-x-7-7-7-|
B|-x-8-x-8-x-8-x-8-x-8-x-8-x-8-x-8-x-8-x-8-x-8-8-8-x-7-x-7-x-7-7-7-|
G|-x-9-x-9-x-9-x-9-x-9-x-9-x-9-x-9-x-9-x-9-x-9-9-9-x-8-x-8-x-8-8-8-|
D|-x-9-x-9-x-9-x-9-x-9-x-9-x-9-x-9-x10-x10-x101010-x-9-x-9-x-9-9-9-|
A|-x-7-x-7-x-7-x-7-x-7-x-7-x-7-x-7-x10-x10-x101010-x-9-x-9-x-9-9-9-|
E|---------------------------------x-8-x-8-x-8-8-8-x-7-x-7-x-7-7-7-|

Pre Chorus
----------

e|-----------------------------------------------------------|
B|-----------------------------------------------------------|
G|-----------------------------------------------------------|
D|-2-2-4/5-4-----2-2-4/5-4-----2-2-4/5-4---------------------|
A|-2-2-2/3-2--5--2-2-2/3-2--5--2-2-2/3-2--5--2-2-2-2-2-2-2-2-|
E|-0-0--------3--0-0--------3--0-0--------3--0-0-0-0-0-0-0-0-|
                                             . . . . . . . .
Chorus
------

e|--------------------------------------------------------------------|
B|--------------------------------------------------------------------|
G|-9-9-9-9-9-9-9-9------------------------------------5-5-5-5-5-5-5-5-|
D|-9-9-9-9-9-9-9-9--5-5-5-5-5-5-5-5--7-7-7-7-7-7-7-7--5-5-5-5-5-5-5-5-|
A|-7-7-7-7-7-7-7-7--5-5-5-5-5-5-5-5--7-7-7-7-7-7-7-7--3-3-3-3-3-3-3-3-|
E|-0-0-0-0-0-0-0-0--3-3-3-3-3-3-3-3--5-5-5-5-5-5-5-5------------------|

e|--------------------------------------------------------------------|
B|--------------------------------------------------------------------|
G|-9-9-9-9-9-9-9-9------------------------------------5-5-5-5-5-5-5-5-|
D|-9-9-9-9-9-9-9-9--5-5-5-5-5-5-5-5--7-7-7-7-7-7-7-7--5-5-5-5-5-5-5-5-|
A|-7-7-7-7-7-7-7-7--5-5-5-5-5-5-5-5--7-7-7-7-7-7-7-7--3-3-3-3-3-3-3-3-|
E|-0-0-0-0-0-0-0-0--3-3-3-3-3-3-3-3--5-5-5-5-5-5-5-5------------------|

Bridge Part 1
-------------

e|------------------------------------------------------------------|
B|----------------------------------8-8-8-8-8-8-8-8-8-8-8-8-8-8-8-8-|
G|-6-6-6-6-6-6-6-6-6-6-6-6-6-6-6-6--9-9-9-9-9-9-9-9-9-9-9-9-9-9-9-9-|
D|-6-6-6-6-6-6-6-6-6-6-6-6-6-6-6-6--9-9-9-9-9-9-9-9-9-9-9-9-9-9-9-9-|
A|-4-4-4-4-4-4-4-4-4-4-4-4-4-4-4-4--7-7-7-7-7-7-7-7-7-7-7-7-7-7-7-7-|
E|------------------------------------------------------------------|

e|------------------------------------------------------------------|
B|----------------------------------8-8-8-8-8-8-8-8-----------------|
G|-6-6-6-6-6-6-6-6-6-6-6-6-6-6-6-6--9-9-9-9-9-9-9-9-----------------|
D|-6-6-6-6-6-6-6-6-6-6-6-6-6-6-6-6--9-9-9-9-9-9-9-9-9-9-9-9-9-9-9-9-|
A|-4-4-4-4-4-4-4-4-4-4-4-4-4-4-4-4--7-7-7-7-7-7-7-7-9-9-9-9-9-9-9-9-|
E|--------------------------------------------------7-7-7-7-7-7-7-7-|

Bridge Part 2
-------------

e|-x-7-x-7-x-7-x-7-x-7-x-7-x-7-x-7-x-8-x-8-x-8-8-8-x-7-x-7-x-7-7-7-|
B|-x-8-x-8-x-8-x-8-x-8-x-8-x-8-x-8-x-8-x-8-x-8-8-8-x-7-x-7-x-7-7-7-|
G|-x-9-x-9-x-9-x-9-x-9-x-9-x-9-x-9-x-9-x-9-x-9-9-9-x-8-x-8-x-8-8-8-|
D|-x-9-x-9-x-9-x-9-x-9-x-9-x-9-x-9-x10-x10-x101010-x-9-x-9-x-9-9-9-|
A|-x-7-x-7-x-7-x-7-x-7-x-7-x-7-x-7-x10-x10-x101010-x-9-x-9-x-9-9-9-|
E|---------------------------------x-8-x-8-x-8-8-8-x-7-x-7-x-7-7-7-|

e|-x-7-x-7-x-7-x-7-x-7-x-7-x-7-x-7-x-8-x-8-x-8-8-8-x-7-x-7-x-7-7-7-|
B|-x-8-x-8-x-8-x-8-x-8-x-8-x-8-x-8-x-8-x-8-x-8-8-8-x-7-x-7-x-7-7-7-|
G|-x-9-x-9-x-9-x-9-x-9-x-9-x-9-x-9-x-9-x-9-x-9-9-9-x-8-x-8-x-8-8-8-|
D|-x-9-x-9-x-9-x-9-x-9-x-9-x-9-x-9-x10-x10-x101010-x-9-x-9-x-9-9-9-|
A|-x-7-x-7-x-7-x-7-x-7-x-7-x-7-x-7-x10-x10-x101010-x-9-x-9-x-9-9-9-|
E|---------------------------------x-8-x-8-x-8-8-8-x-7-x-7-x-7-7-7-|

e|-x-7-x-7-x-7-x-7-x-7-x-7-x-7-x-7-x-8-x-8-x-8-8-8-x-7-x-7-x-7-7-7-|
B|-x-8-x-8-x-8-x-8-x-8-x-8-x-8-x-8-x-8-x-8-x-8-8-8-x-7-x-7-x-7-7-7-|
G|-x-9-x-9-x-9-x-9-x-9-x-9-x-9-x-9-x-9-x-9-x-9-9-9-x-8-x-8-x-8-8-8-|
D|-x-9-x-9-x-9-x-9-x-9-x-9-x-9-x-9-x10-x10-x101010-x-9-x-9-x-9-9-9-|
A|-x-7-x-7-x-7-x-7-x-7-x-7-x-7-x-7-x10-x10-x101010-x-9-x-9-x-9-9-9-|
E|---------------------------------x-8-x-8-x-8-8-8-x-7-x-7-x-7-7-7-|

e|-x-7-x-7-x-7-x-7-x-7-x-7-x-7-x-7-x-8-x-8-x-8-8-8-----------------|
B|-x-8-x-8-x-8-x-8-x-8-x-8-x-8-x-8-x-8-x-8-x-8-8-8-----------------|
G|-x-9-x-9-x-9-x-9-x-9-x-9-x-9-x-9-x-9-x-9-x-9-9-9-8x--------------|
D|-x-9-x-9-x-9-x-9-x-9-x-9-x-9-x-9-x10-x10-x101010-9x--------------|
A|-x-7-x-7-x-7-x-7-x-7-x-7-x-7-x-7-x10-x10-x101010-9x--2h3-2-------|
E|---------------------------------x-8-x-8-x-8-8-8-7x---------3----|

Chorus
------

e|--------------------------------------------------------------------|
B|--------------------------------------------------------------------|
G|-9-9-9-9-9-9-9-9------------------------------------5-5-5-5-5-5-5-5-|
D|-9-9-9-9-9-9-9-9--5-5-5-5-5-5-5-5--7-7-7-7-7-7-7-7--5-5-5-5-5-5-5-5-|
A|-7-7-7-7-7-7-7-7--5-5-5-5-5-5-5-5--7-7-7-7-7-7-7-7--3-3-3-3-3-3-3-3-|
E|-0-0-0-0-0-0-0-0--3-3-3-3-3-3-3-3--5-5-5-5-5-5-5-5------------------|

e|--------------------------------------------------------------------|
B|--------------------------------------------------------------------|
G|-9-9-9-9-9-9-9-9------------------------------------5-5-5-5-5-5-5-5-|
D|-9-9-9-9-9-9-9-9--5-5-5-5-5-5-5-5--7-7-7-7-7-7-7-7--5-5-5-5-5-5-5-5-|
A|-7-7-7-7-7-7-7-7--5-5-5-5-5-5-5-5--7-7-7-7-7-7-7-7--3-3-3-3-3-3-3-3-|
E|-0-0-0-0-0-0-0-0--3-3-3-3-3-3-3-3--5-5-5-5-5-5-5-5------------------|

Outro
-----

e|------------------------------------------------------------|
B|------------------------------------------------------------|
G|------------------------------------------------------------|
D|------5-----4h5-^----5-----4h5------5-----4h5---------------|
A|----------------3--3---3-3-----^--------------0-(0)-2h3-2---|
E|--0-0---0-0--------.---.-.-----3--3---3-3-----------------3-|
    . .   . .                       .   . .
e|------------------------------------------------------------|
B|------------------------------------------------------------|
G|------------------------------------------------------------|
D|------5-----4h5-^----5-----4h5------5-----4h5---------------|
A|----------------3--3---3-3-----^--------------0-(0)-2h3-2---|
E|--0-0---0-0--------.---.-.-----3--3---3-3-----------------3-|
    . .   . .                       .   . .
e|-------------|
B|-------------|
G|-9-9-9-9-9/x-|
D|-9-9-9-9-9/x-|
A|-7-7-7-7-7/x-|
E|-0-0-0-0-0-x-|

GREG!!!!

Intro
-----

Silent at first then come in with:
e|------------------------------------------------------------|
B|----------------------------------------------------3h5-3---|
G|----------------------------------------------------------4-|
D|------------------------------------------------------------|
A|------------------------------------------------------------|
E|------------------------------------------------------------|

e|------------------------------------------------------------|
B|----------------------------------------------------3h5-3---|
G|------4-----2h4-^----4-----2h4------4-----2h4-^-----------4-|
D|--2-2---2-2-----5--5---5-5-----0--0---0-0-----2-(2)---------|
A|--.-.---.-.--------.---.-.--------.---.-.-------------------|
E|------------------------------------------------------------|

e|------------------------------------------------------------|
B|----------------------------------------------------3h5-3---|
G|------4-----2h4-^----4-----2h4------4-----2h4-^-----------4-|
D|--2-2---2-2-----5--5---5-5-----0--0---0-0-----2-(2)---------|
A|--.-.---.-.--------.---.-.--------.---.-.-------------------|
E|------------------------------------------------------------|

End of Intro
------------

e|-------------------------------|
B|-------------------------------|
G|-------------------------------|
D|-2x----------------------------|
A|-2x----------------------------|
E|-0x----------------------------|

Verse
-----

For the first two measures, either stay silent or play along with Matty's part

Then:
e|-7-7-7---------------------------7-7-7---------------------------|
B|-------7-7-7-8-8-8-------7-7-----------7-7-7-8-8-8-------7-7-----|
G|-------------------7-7-7-----7-7-------------------7-7-7-----7-7-|
D|-----------------------------------------------------------------|
A|-----------------------------------------------------------------|
E|-----------------------------------------------------------------|

e|-7-7-7---------------------------7-7-7---------------------------|
B|-------7-7-7-8-8-8-------7-7-----------7-7-7-8-8-8-------7-7-----|
G|-------------------7-7-7-----7-7-------------------7-7-7-----7-7-|
D|-----------------------------------------------------------------|
A|-----------------------------------------------------------------|
E|-----------------------------------------------------------------|

Pre Chorus
----------

e|-----------------------------------------------|
B|-----------------------------------------------|
G|-----------------------------------------------|
D|-2x--------------------------------------------|
A|-2x--------------------------------(slide)-----|
E|-0x-------------------------------/////////----|

Chorus
------

e|--------------------------------------------------------------------|
B|--------------------------------------------------------------------|
G|1212121212121212-1616161616161616-1717171717171717-1616161614141414-|
D|-x-x-x-x-x-x-x-x--x-x-x-x-x-x-x-x--x-x-x-x-x-x-x-x--x-x-x-x-x-x-x-x-|
A|1010101010101010-1414141414141414-1515151515151515-1414141412121212-|
E|--------------------------------------------------------------------|

e|--------------------------------------------------------------------|
B|--------------------------------------------------------------------|
G|1212121212121212-1616161616161616-1717171717171717-1616161614141414-|
D|-x-x-x-x-x-x-x-x--x-x-x-x-x-x-x-x--x-x-x-x-x-x-x-x--x-x-x-x-x-x-x-x-|
A|1010101010101010-1414141414141414-1515151515151515-1414141412121212-|
E|--------------------------------------------------------------------|

Intro
-----

e|------------------------------------------------------------|
B|----------------------------------------------------3h5-3---|
G|------4-----2h4-^----4-----2h4------4-----2h4-^-----------4-|
D|--2-2---2-2-----5--5---5-5-----0--0---0-0-----2-(2)---------|
A|--.-.---.-.--------.---.-.--------.---.-.-------------------|
E|------------------------------------------------------------|

e|------------------------------------------------------------|
B|----------------------------------------------------3h5-3---|
G|------4-----2h4-^----4-----2h4------4-----2h4-^-----------4-|
D|--2-2---2-2-----5--5---5-5-----0--0---0-0-----2-(2)---------|
A|--.-.---.-.--------.---.-.--------.---.-.-------------------|
E|------------------------------------------------------------|

End of Intro
------------

e|-------------------------------|
B|-------------------------------|
G|-------------------------------|
D|-2x----------------------------|
A|-2x----------------------------|
E|-0x----------------------------|

Verse
-----

For the first two measures, either stays silent or plays along with Matty's part

Then:
e|-7-7-7---------------------------7-7-7---------------------------|
B|-------7-7-7-8-8-8-------7-7-----------7-7-7-8-8-8-------7-7-----|
G|-------------------7-7-7-----7-7-------------------7-7-7-----7-7-|
D|-----------------------------------------------------------------|
A|-----------------------------------------------------------------|
E|-----------------------------------------------------------------|

e|-7-7-7---------------------------7-7-7---------------------------|
B|-------7-7-7-8-8-8-------7-7-----------7-7-7-8-8-8-------7-7-----|
G|-------------------7-7-7-----7-7-------------------7-7-7-----7-7-|
D|-----------------------------------------------------------------|
A|-----------------------------------------------------------------|
E|-----------------------------------------------------------------|

Pre Chorus
----------

e|-----------------------------------------------|
B|-----------------------------------------------|
G|-----------------------------------------------|
D|-2x--------------------------------------------|
A|-2x----------------------------2-2-2-2-2-2-2-2-|
E|-0x----------------------------0-0-0-0-0-0-0-0-|
                                 . . . . . . . .
Chorus
------

e|--------------------------------------------------------------------|
B|--------------------------------------------------------------------|
G|1212121212121212-1616161616161616-1717171717171717-1616161614141414-|
D|-x-x-x-x-x-x-x-x--x-x-x-x-x-x-x-x--x-x-x-x-x-x-x-x--x-x-x-x-x-x-x-x-|
A|1010101010101010-1414141414141414-1515151515151515-1414141412121212-|
E|--------------------------------------------------------------------|

e|--------------------------------------------------------------------|
B|--------------------------------------------------------------------|
G|1212121212121212-1616161616161616-1717171717171717-1616161614141414-|
D|-x-x-x-x-x-x-x-x--x-x-x-x-x-x-x-x--x-x-x-x-x-x-x-x--x-x-x-x-x-x-x-x-|
A|1010101010101010-1414141414141414-1515151515151515-1414141412121212-|
E|--------------------------------------------------------------------|

Bridge Part 1
-------------
*There are different ways of playing this

1) you can make scratching sounds through out this part

2) Play a lead part over the top like this:
e|----------------------------------7777777755555555-----------------|
B|----(silent)--------------------------------------8888888877777777-|
G|-------------------------------------------------------------------|
D|-------------------------------------------------------------------|
A|-------------------------------------------------------------------|
E|-------------------------------------------------------------------|

e|--------------------------------------------------7777777755555555-|----|
B|-^--------------------------------8888888877777777-----------------|-8~-|
G|-9~~~~-------------------------------------------------------------|----|
D|-------------------------------------------------------------------|----|
A|-------------------------------------------------------------------|----|
E|-------------------------------------------------------------------|----|

Bridge Part 2
-------------

e|-----------------------------------------------------------------|
B|-----------------------------------------------------------------|
G|-----4-----2h4-----------------------4-----2h4-------------------|
D|-2-2---2-2-----5~~~~~------------2-2---2-2-----4~~~~~------------|
A|-.-.---.-.-----------------------.-.---.-.-----------------------|
E|-----------------------------------------------------------------|

e|-----------------------------------------------------------------|
B|-----------------------------------------------------------------|
G|-----4-----2h4-----------------------4-----2h4-------------------|
D|-2-2---2-2-----5~~~~~------------2-2---2-2-----4~~~~~------------|
A|-.-.---.-.-----------------------.-.---.-.-----------------------|
E|-----------------------------------------------------------------|

e|-----------------------------------------------------------------|
B|-----------------------------------------------------3h5-3-------|
G|-----4-------4-------4-------4-------4-------4--------------4----|
D|-2-2---2-2-2---2-2-2---2-2-2---2-2-2---2-2-2---2-2-2-------------|
A|-.-.---.-.-.---.-.-.---.-.-.---.-.-.---.-.-.---.-.-.-------------|
E|-----------------------------------------------------------------|

e|-----------------------------------------------------------------|
B|-----------------------------------------------------3h5-3-------|
G|-----4-------4-------4-------4-------4-------4--------------4----|
D|-2-2---2-2-2---2-2-2---2-2-2---2-2-2---2-2-2---2-2-2-------------|
A|-.-.---.-.-.---.-.-.---.-.-.---.-.-.---.-.-.---.-.-.-------------|
E|-----------------------------------------------------------------|

Chorus
------

e|--------------------------------------------------------------------|
B|--------------------------------------------------------------------|
G|1212121212121212-1616161616161616-1717171717171717-1616161614141414-|
D|-x-x-x-x-x-x-x-x--x-x-x-x-x-x-x-x--x-x-x-x-x-x-x-x--x-x-x-x-x-x-x-x-|
A|1010101010101010-1414141414141414-1515151515151515-1414141412121212-|
E|--------------------------------------------------------------------|
*Now you can either play the same part, or play this lead part:
e|-7-7-7---------------------------7-7-7---------------------------|
B|-------7-7-7-8-8-8-------7-7-----------7-7-7-8-8-8-------7-7-----|
G|-------------------7-7-7-----7-7-------------------7-7-7-----7-7-|
D|-----------------------------------------------------------------|
A|-----------------------------------------------------------------|
E|-----------------------------------------------------------------|

e|-7-7-7---------------------------7-7-7---------------------------|
B|-------7-7-7-8-8-8-------7-7-----------7-7-7-8-8-8-------7-7-----|
G|-------------------7-7-7-----7-7-------------------7-7-7-----7-7-|
D|-----------------------------------------------------------------|
A|-----------------------------------------------------------------|
E|-----------------------------------------------------------------|

Outro
-----
*NOTE: There are two leads during the Outro

Way #1
e|------------------------------------------------------------|
B|----------------------------------------------------3h5-3---|
G|------4-----2h4-^----4-----2h4------4-----2h4-^-----------4-|
D|--2-2---2-2-----5--5---5-5-----0--0---0-0-----2-(2)---------|
A|--.-.---.-.--------.---.-.--------.---.-.-------------------|
E|------------------------------------------------------------|

e|------------------------------------------------------------|
B|----------------------------------------------------3h5-3---|
G|------4-----2h4-^----4-----2h4------4-----2h4-^-----------4-|
D|--2-2---2-2-----5--5---5-5-----0--0---0-0-----2-(2)---------|
A|--.-.---.-.--------.---.-.--------.---.-.-------------------|
E|------------------------------------------------------------|

e|-------------|
B|-------------|
G|-9-9-9-9-9/x-|
D|-9-9-9-9-9/x-|
A|-7-7-7-7-7/x-|
E|-0-0-0-0-0-x-|

Way #2
e|-7~~~-------------------------------------------------------|
B|----------------7~~~-----------8~~~-------------------------|
G|----------------------------------------------7777777777777-|
D|------------------------------------------------------------|
A|------------------------------------------------------------|
E|------------------------------------------------------------|

e|-7~~~-------------------------------------------------------|
B|----------------7~~~-----------8~~~-------------------------|
G|----------------------------------------------7777777777777-|
D|------------------------------------------------------------|
A|------------------------------------------------------------|
E|------------------------------------------------------------|

e|-7-7-7-7-7/x-|
B|-------------|
G|-------------|
D|-------------|
A|-------------|
E|-------------|


| /  slide up
| \  slide down
| h  hammer-on
| p  pull-off
| ~  vibrato
| +  harmonic
| x  Mute note
comments
We did not receive enough feedback on this tab! Please rate:
1 2 3 4 5
1 comment total.
0 reply
K.L.O.U.D. F-13 wrote on October 19 2009, 09:26 pm

SOMEBODY TABBED THISSS

I want to post or [tab]
guest
You may want to rate the tab now too:
select rating
Please do not post tabs as comments. Select "correction" instead!