Oops, an error
Loading. Please wait.

Everything Is Wasteland Tab

17 views 1 this week
no commentswrite comment
1 2 3 4 5
please rate
Autoscroll
+/-
esc
set tempo
stop
Contributor
Difficulty
Tuning
novice
B E A D F# B
WARNING: You are trying to view
                                    content from Ultimate-Guitar.com
                                    in an unauthorized application,
                                    which is prohibited.

                                    Please use an official Ultimate
                                    Guitar Tabs application for iPhone,
                                    iPad or Android to access legitimate
                                    chords, guitar, bass, and drum tabs
                                    from Ultimate-Guitar.com database.

                                    Type "ultimate guitar tabs" in Apple
                                    App Store's or Android Market's
                                    search to find the application.
-----------------------------------------------------------------------------
                             ZONARIA - Everything Is Wasteland
-----------------------------------------------------------------------------
Tabbed by: Samee
Email: xcrunner64@yahoo.com

Tuning: B Standard (for 6-string guitars): B E A D F# B

 |-----------------------------------------------------------------|
 |-----------------------------------------------------------------|
 |-----------------------------------------------------------------|
 |-5---4-4-5~~~~~~~~~~-----------------5---4-4-5~~~~~~~~~~~~~~~~~--|
 |-----------------------------------------------------------------|
 |---------------------2---3---2---0-------------------------------|

 |-----------------------------------------------------------------|
 |-----------------------------------------------------------------|
 |-----------------------------------------------------------------|
 |-5---4-4-5~~~~~~~~~~-----------------5---4-4-4bs-------~~~~~~~~~-|
 |-----------------------------------------------------------------|
 |---------------------2---3---2---0-------------------------------|

 |-----------------------------------------------------------------|
 |-----------------------------------------------------------------|
 |-----------------------------------------------------------------|
 |-5---4-4-5~~~~~~~~~~-----------------5---4-4-5~~~~~~~~~~~~~~~~~--|
 |-----------------------------------------------------------------|
 |---------------------2---3---2---0-------------------------------|

 |-----------------------------------------------------------------|
 |-----------------------------------------------------------------|
 |-----------------------------------------------------------------|
 |-5---4-4-5~~~~~~~~~~-----------------5---4-4-4bs-------~~~~~~~~~-|
 |-----------------------------------------------------------------|
 |---------------------2---3---2---0-------------------------------|

 |-----------------------------------------------------------------|
 |-----------------------------------------------------------------|
 |-----------------------------------------------------------------|
 |-----------------------------------------------------------------|
 |-2-------2---2---2---2---2---2---6\------2-2-2-2-2-2-2-2-2-2-2-2-|
 |-0-------0---0---0---0---0---0---4\------0-0-0-0-0-0-0-0-0-0-0-0-|
           .   .   .   .   .   .

 |-----------------------------------------------------------------|
 |-----------------------------------------------------------------|
 |-----------------------------------------------------------------|
 |-----------------------------------------------------------------|
 |-2-------2---2---2---2---2---2---6\------2-2-2-2-2-2-2-2-2-2-2-2-|
 |-0-------0---0---0---0---0---0---4\------0-0-0-0-0-0-0-0-0-0-0-0-|
           .   .   .   .   .   .

 |-----------------------------------------------------------------|
 |-----------------------------------------------------------------|
 |-----------------------------------------------------------------|
 |-----------------------------------------------------------------|
 |-2-------2---2---2---2---2---2---6\------2-2-2-2-2-2-2-2-2-2-2-2-|
 |-0-------0---0---0---0---0---0---4\------0-0-0-0-0-0-0-0-0-0-0-0-|
           .   .   .   .   .   .

 |-----------------------------------------------------------------|
 |-----------------------------------------------------------------|
 |-----------------------------------------------------------------|
 |-----------------------------------------------------------------|
 |-2-------2---2---2---2---2---2---6\------2-2-2-2-2-2-2-2-2-2-2-2-|
 |-0-------0---0---0---0---0---0---4\------0-0-0-0-0-0-0-0-0-0-0-0-|
           .   .   .   .   .   .

 |---------------------------------|
 |---------------------------------|
 |----------Pause between----------|
 |----------0:32 and 0:34----------|
 |---------------------------------|
 |---------------------------------|

 |--------------------------------------------------------------------------|
 |--------------------------------------------------------------------------|
 |--------------------------------------------------------------------------|
 |-------------------------------------------------------------8------------|
 |-----------------777777777---7-------------------888888887----------------|
 |-000000000---0-------------------000000000---0----------------------------|
                                                               +

 |--------------------------------------------------------------------------|
 |--------------------------------------------------------------------------|
 |--------------------------------------------------------------------------|
 |-------------------------------------------------------------8------------|
 |-----------------777777777---7-------------------888888887----------------|
 |-000000000---0-------------------000000000---0----------------------------|
                                                               +

 |-----------------------------------------------------------------|
 |-----------------------------------------------------------------|
 |-----------------------------------------------------------------|
 |-----------------------------------------------------------------|
 |---------8-7-------------4-5-6-7---------8-7---------------------|
 |-0-0-0-0-----0-0-0-0-0-0---------0-0-0-0-----0-0-0-0-1-1-1-1-1-1-|

 |-----------------------------------------------------------------|
 |-----------------------------------------------------------------|
 |-----------------------------------------------------------------|
 |-----------------------------------------------------------------|
 |---------8-7-------------4-5-6-7---------8-7---------------------|
 |-0-0-0-0-----0-0-0-0-0-0---------0-0-0-0-----0-0-0-0-1-1-1-1-1-1-|

 |-----------------------------------------------------------------|
 |-----------------------------------------------------------------|
 |-----------------------------------------------------------------|
 |-5-----------5-5-5-------7-------9-------------------------------|
 |-3-----------3-3-3-------5-----------7---------------7-----------|
 |---------------------------------------------0-0-7-------0-------|
               . .

 |-----------------------------------------------------------------|
 |-----------------------------------------------------------------|
 |-----------------------------------------------------------------|
 |-5-----------5-5-5-------7---------------------------------------|
 |-3-----------3-3-3-------5-------2-------------------7-----------|
 |---------------------------------0-----------0-0-7-------0-------|
               . .

 |-----------------------------------------------------------------|
 |-----------------------------------------------------------------|
 |-----------------------------------------------------------------|
 |-5-----------5-5-5-------7-------9-------------------------------|
 |-3-----------3-3-3-------5-----------7---------------7-----------|
 |---------------------------------------------0-0-7-------0-------|
               . .

 |--------------------------------|
 |--------------------------------|
 |--------------------------------|
 |-5-----------5-5-5-------7x-----|
 |-3-----------3-3-3-------5x-----|
 |--------------------------------|
               . .

 |--------------------------------------------------------------------------|
 |--------------------------------------------------------------------------|
 |--------------------------------------------------------------------------|
 |-------------------------------------------------------------8------------|
 |-----------------777777777---7-------------------888888887----------------|
 |-000000000---0-------------------000000000---0----------------------------|
                                                               +

 |--------------------------------------------------------------------------|
 |--------------------------------------------------------------------------|
 |--------------------------------------------------------------------------|
 |-------------------------------------------------------------8------------|
 |-----------------777777777---7-------------------888888887----------------|
 |-000000000---0-------------------000000000---0----------------------------|
                                                               +

 |-----------------------------------------------------------------|
 |-----------------------------------------------------------------|
 |-----------------------------------------------------------------|
 |-----------------------------------------------------------------|
 |---------8-7-------------4-5-6-7---------8-7---------------------|
 |-0-0-0-0-----0-0-0-0-0-0---------0-0-0-0-----0-0-0-0-1-1-1-1-1-1-|

 |-----------------------------------------------------------------|
 |-----------------------------------------------------------------|
 |-----------------------------------------------------------------|
 |-----------------------------------------------------------------|
 |---------8-7-------------4-5-6-7---------8-7---------------------|
 |-0-0-0-0-----0-0-0-0-0-0---------0-0-0-0-----0-0-0-0-1-1-1-1-1-1-|

 |-----------------------------------------------------------------|
 |-----------------------------------------------------------------|
 |-----------------------------------------------------------------|
 |-5-----------5-5-5-------7-------9-------------------------------|
 |-3-----------3-3-3-------5-----------7---------------7-----------|
 |---------------------------------------------0-0-7-------0-------|
               . .

 |-----------------------------------------------------------------|
 |-----------------------------------------------------------------|
 |-----------------------------------------------------------------|
 |-5-----------5-5-5-------7---------------------------------------|
 |-3-----------3-3-3-------5-------2-------------------7-----------|
 |---------------------------------0-----------0-0-7-------0-------|
               . .

 |-----------------------------------------------------------------|
 |-----------------------------------------------------------------|
 |-----------------------------------------------------------------|
 |-5-----------5-5-5-------7-------9-------------------------------|
 |-3-----------3-3-3-------5-----------7---------------7-----------|
 |---------------------------------------------0-0-7-------0-------|
               . .

 |-----------------------------------------------------------------|
 |-----------------------------------------------------------------|
 |-----------------------------------------------------------------|
 |-5-----------5-5-5-------7---------------------------------------|
 |-3-----------3-3-3-------5-------2-------------------7-----------|
 |---------------------------------0-----------0-0-7-------0-------|
               . .

 |-----------------------------------------------------------------|
 |-----------------------------------------------------------------|
 |-----------------------------------------------------------------|
 |-5---4-4-5~~~~~~~~~~-----------------5---4-4-5~~~~~~~~~~~~~~~~~--|
 |-----------------------------------------------------------------|
 |---------------------2---3---2---0-------------------------------|

 |-----------------------------------------------------------------|
 |-----------------------------------------------------------------|
 |-----------------------------------------------------------------|
 |-5---4-4-5~~~~~~~~~~-----------------5---4-4-4bs-------~~~~~~~~~-|
 |-----------------------------------------------------------------|
 |---------------------2---3---2---0-------------------------------|

 |-----------------------------------------------------------------|
 |-----------------------------------------------------------------|
 |-----------------------------------------------------------------|
 |-5---4-4-5~~~~~~~~~~-----------------5---4-4-5~~~~~~~~~~~~~~~~~--|
 |-----------------------------------------------------------------|
 |---------------------2---3---2---0-------------------------------|

 |-----------------------------------------------------------------|
 |-----------------------------------------------------------------|
 |-----------------------------------------------------------------|
 |-5---4-4-5~~~~~~~~~~-----------------5---4-4-4bs-------~~~~~~~~~-|
 |-----------------------------------------------------------------|
 |---------------------2---3---2---0-------------------------------|

 |---------------------------------------|
 |---------------------------------------|
 |---------------------------------------|
 |---------------------------------------|
 |-2---2---(2)---(2)---(2)---(2)---x-----|
 |-0---0---(0)---(0)---(0)---(0)---x-----|

 |---------------------------------------------------------------------|
 |---------------------------------------------------------------------|
 |---------------------------------------------------------------------|
 |-2---------------------------0h2-------------------------------------|
 |---------------------------------3---2-------------------------------|
 |-------------------------------------------------5---4-------1-------|

 |-----------------------------------------------------------------|
 |-----------------------------------------------------------------|
 |-----------------------------------------------------------------|
 |-----------------------------------------------------------------|
 |-----------------------------------------------------------------|
 |-0-1-0---------------------------1-------4-------0---------------|

 |---------------------------------------------------------------------|
 |---------------------------------------------------------------------|
 |---------------------------------------------------------------------|
 |-2---------------------------0h2-------------------------------------|
 |---------------------------------3---2-------------------------------|
 |-------------------------------------------------5---4-------1-------|

 |-----------------------------------------------------------------|
 |-----------------------------------------------------------------|
 |-----------------------------------------------------------------|
 |-----------------------------------------------------------------|
 |-----------------------------------------------------------------|
 |-0-1-0---------------------------1-------4-------0---------------|

 |---------------------------------------------------------------------|
 |---------------------------------------------------------------------|
 |---------------------------------------------------------------------|
 |-2-2-2-2-2-2-2-2-2-2-2-2-2-2-0-2-------------------------------------|
 |---------------------------------3-3-2-2-2-2-2-2---------------------|
 |-------------------------------------------------5-5-4-4-4-4-1-1-1-1-|

 |-----------------------------------------------------------------|
 |-----------------------------------------------------------------|
 |-----------------------------------------------------------------|
 |-----------------------------------------------------------------|
 |-----------------------------------------------------------------|
 |-0-1-0-0-0-0-0-0-0-0-0-0-0-0-0-0-1-1-1-1-4-4-4-4-0-0-0-0-0-0-0-0-|

 |---------------------------------------------------------------------|
 |---------------------------------------------------------------------|
 |---------------------------------------------------------------------|
 |-2-2-2-2-2-2-2-2-2-2-2-2-2-2-0-2-------------------------------------|
 |---------------------------------3-3-2-2-2-2-2-2---------------------|
 |-------------------------------------------------5-5-4-4-4-4-1-1-1-1-|

 |-----------------------------------------------------------------|
 |-----------------------------------------------------------------|
 |-----------------------------------------------------------------|
 |-----------------------------------------------------------------|
 |-----------------------------------------------------------------|
 |-0--(0)--(0)--(0)--(0)--(0)--(0)-x-------------------------------|

 |-----------------------------------------------------------------|
 |-----------------------------------------------------------------|
 |-----------------------------------------------------------------|
 |-------------------------------------------------5---(5)---(5)---|
 |-2--(2)--(2)--(2)--(2)--(2)--(2)--(2)--(2)--(2)--3---(3)---(3)---|
 |-0--(0)--(0)--(0)--(0)--(0)--(0)--(0)--(0)--(0)------------------|

 |-----------------------------------------------------------------|
 |-----------------------------------------------------------------|
 |-----------------------------------------------------------------|
 |-4--(4)--(4)--(4)--(4)--(4)--(4)-2---(2)---(2)---4---(4)---(4)---|
 |-2--(2)--(2)--(2)--(2)--(2)--(2)-0---(0)---(0)---2---(2)---(2)---|
 |-----------------------------------------------------------------|

 |-----------------------------------------------------------------|
 |-----------------------------------------------------------------|
 |-----------------------------------------------------------------|
 |-------------------------------------------------5---(5)---(5)---|
 |-2--(2)--(2)--(2)--(2)--(2)--(2)--(2)--(2)--(2)--3---(3)---(3)---|
 |-0--(0)--(0)--(0)--(0)--(0)--(0)--(0)--(0)--(0)------------------|

 |-----------------------------------------------------------------|
 |-----------------------------------------------------------------|
 |-----------------------------------------------------------------|
 |-4--(4)--(4)--(4)--(4)--(4)--(4)-2---(2)---(2)---4---(4)---(4)---|
 |-2--(2)--(2)--(2)--(2)--(2)--(2)-0---(0)---(0)---2---(2)---(2)---|
 |-----------------------------------------------------------------|

 |-----------------------------------------------------------------|
 |-----------------------------------------------------------------|
 |-----------------------------------------------------------------|
 |-------------------------------------------------5---(5)---(5)---|
 |-2--(2)--(2)--(2)--(2)--(2)--(2)--(2)--(2)--(2)--3---(3)---(3)---|
 |-0--(0)--(0)--(0)--(0)--(0)--(0)--(0)--(0)--(0)------------------|

 |-----------------------------------------------------------------|
 |-----------------------------------------------------------------|
 |-----------------------------------------------------------------|
 |-4--(4)--(4)--(4)--(4)--(4)--(4)-2---(2)---(2)---4---(4)---(4)---|
 |-2--(2)--(2)--(2)--(2)--(2)--(2)-0---(0)---(0)---2---(2)---(2)---|
 |-----------------------------------------------------------------|

 |-----------------------------------------------------------------|
 |-----------------------------------------------------------------|
 |-----------------------------------------------------------------|
 |-------------------------------------------------5---(5)---(5)---|
 |-2--(2)--(2)--(2)--(2)--(2)--(2)--(2)--(2)--(2)--3---(3)---(3)---|
 |-0--(0)--(0)--(0)--(0)--(0)--(0)--(0)--(0)--(0)------------------|

 |-----------------------------------------------------------------|
 |-----------------------------------------------------------------|
 |-----------------------------------------------------------------|
 |-4--(4)--(4)--(4)--(4)--(4)--(4)-2---(2)---(2)---4---(4)---(4)---|
 |-2--(2)--(2)--(2)--(2)--(2)--(2)-0---(0)---(0)---2---(2)---(2)---|
 |-----------------------------------------------------------------|

 |-----------------------------------------------------------------|
 |-----------------------------------------------------------------|
 |-----------------------------------------------------------------|
 |-----------------------------------------------------------------|
 |-2-------2---2---2---2---2---2---6\------2-2-2-2-2-2-2-2-2-2-2-2-|
 |-0-------0---0---0---0---0---0---4\------0-0-0-0-0-0-0-0-0-0-0-0-|
           .   .   .   .   .   .

 |-----------------------------------------------------------------|
 |-----------------------------------------------------------------|
 |-----------------------------------------------------------------|
 |-----------------------------------------------------------------|
 |-2-------2---2---2---2---2---2---6\------2-2-2-2-2-2-2-2-2-2-2-2-|
 |-0-------0---0---0---0---0---0---4\------0-0-0-0-0-0-0-0-0-0-0-0-|
           .   .   .   .   .   .

 |-----------------------------------------------------------------|
 |-----------------------------------------------------------------|
 |-----------------------------------------------------------------|
 |-----------------------------------------------------------------|
 |-2-------2---2---2---2---2---2---6\------2-2-2-2-2-2-2-2-2-2-2-2-|
 |-0-------0---0---0---0---0---0---4\------0-0-0-0-0-0-0-0-0-0-0-0-|
           .   .   .   .   .   .

 |-----------------------------------------------------------------|
 |-----------------------------------------------------------------|
 |-----------------------------------------------------------------|
 |-----------------------------------------------------------------|
 |-2-------2---2---2---2---2---2---6\------2-2-2-2-2-2-2-2-2-2-2-2-|
 |-0-------0---0---0---0---0---0---4\------0-0-0-0-0-0-0-0-0-0-0-0-|
           .   .   .   .   .   .

 |-----------------------------------------------------------------|
 |-----------------------------------------------------------------|
 |-----------------------------------------------------------------|
 |-5-----------5-5-5-------7-------9-------------------------------|
 |-3-----------3-3-3-------5-----------7---------------7-----------|
 |---------------------------------------------0-0-7-------0-------|
               . .

 |-----------------------------------------------------------------|
 |-----------------------------------------------------------------|
 |-----------------------------------------------------------------|
 |-5-----------5-5-5-------7---------------------------------------|
 |-3-----------3-3-3-------5-------2-------------------7-----------|
 |---------------------------------0-----------0-0-7-------0-------|
               . .

 |-----------------------------------------------------------------|
 |-----------------------------------------------------------------|
 |-----------------------------------------------------------------|
 |-5-----------5-5-5-------7-------9-------------------------------|
 |-3-----------3-3-3-------5-----------7---------------7-----------|
 |---------------------------------------------0-0-7-------0-------|
               . .

 |-----------------------------------------------------------------|
 |-----------------------------------------------------------------|
 |-----------------------------------------------------------------|
 |-5-----------5-5-5-------7---------------------------------------|
 |-3-----------3-3-3-------5-------2-------------------7-----------|
 |---------------------------------0-----------0-0-7-------0-------|
               . .

 |-----------------------------------------------------------------|
 |-----------------------------------------------------------------|
 |-----------------------------------------------------------------|
 |-5-----------5-5-5-------7-------9-------------------------------|
 |-3-----------3-3-3-------5-----------7---------------7-----------|
 |---------------------------------------------0-0-7-------0-------|
               . .

 |-----------------------------------------------------------------|
 |-----------------------------------------------------------------|
 |-----------------------------------------------------------------|
 |-5-----------5-5-5-------7---------------------------------------|
 |-3-----------3-3-3-------5-------2-------------------7-----------|
 |---------------------------------0-----------0-0-7-------0-------|
               . .

 |-----------------------------------------------------------------|
 |-----------------------------------------------------------------|
 |-----------------------------------------------------------------|
 |-5-----------5-5-5-------7-------9-------------------------------|
 |-3-----------3-3-3-------5-----------7---------------7-----------|
 |---------------------------------------------0-0-7-------0-------|
               . .

 |-----------------------------------------------------------------|
 |-----------------------------------------------------------------|
 |-----------------------------------------------------------------|
 |-5-----------5-5-5-------7---------------------------------------|
 |-3-----------3-3-3-------5-------2-------------------7-----------|
 |---------------------------------0-----------0-0-7-------0-------|
               . .

 |---------------------------------------------------------------------|
 |---------------------------------------------------------------------|
 |---------------------------------------------------------------------|
 |-2---------------------------0h2-------------------------------------|
 |---------------------------------3---2-------------------------------|
 |-------------------------------------------------5---4-------1-------|

 |-----------------------------------------------------------------|
 |-----------------------------------------------------------------|
 |-----------------------------------------------------------------|
 |-----------------------------------------------------------------|
 |-----------------------------------------------------------------|
 |-0-1-0---------------------------1-------4-------0---------------|

 |---------------------------------------------------------------------|
 |---------------------------------------------------------------------|
 |---------------------------------------------------------------------|
 |-2---------------------------0h2-------------------------------------|
 |---------------------------------3---2-------------------------------|
 |-------------------------------------------------5---4-------1-------|

 |-----------------------------------------------------------------|
 |-----------------------------------------------------------------|
 |-----------------------------------------------------------------|
 |-----------------------------------------------------------------|
 |---------------------------------2-2-x---5-5-x---2---(2)---(2)---|
 |-0-1-0---------------------------0-0-x---3-3-x---0---(0)---(0)---|
                                   . .     . .

 |-----------------------------------------------------------------------|
 |-----------------------------------------------------------------------|
 |-----------------------------------------------------------------------|
 |-----------------------------------------------------------------------|
 |-(2)---(2)---(2)---(2)---(2)---(2)---(2)---(2)---(2)---(2)---(2)---(2)-|
 |-(0)---(0)---(0)---(0)---(0)---(0)---(0)---(0)---(0)---(0)---(0)---(0)-|

 |-----------------------------------------------------------------------|
 |-----------------------------------------------------------------------|
 |-----------------------------------------------------------------------|
 |-----------------------------------------------------------------------|
 |-(2)---(2)---(2)---(2)---(2)---(2)---(2)---(2)---(2)---(2)---(2)---(2)-|
 |-(0)---(0)---(0)---(0)---(0)---(0)---(0)---(0)---(0)---(0)---(0)---(0)-|

 |---------------------------------|
 |---------------------------------|
 |----------Pause between----------|
 |----------4:20 and 4:46----------|
 |---------------------------------|
 |---------------------------------|



************************************

| /   slide up
| \   slide down
| h   hammer-on
| ~   vibrato
| x   mute note
| (#) let ring
| bs  Bend slowly

************************************
comments
We did not receive enough feedback on this tab! Please rate:
print report bad tab
1 2 3 4 5
I want to post or [tab]
guest
You may want to rate the tab now too:
select rating
Please do not post tabs as comments. Select "correction" instead!