Oops, an error
Loading. Please wait.

Tired Of Hanging Around Tab

1,850 views 6 this week
no commentswrite comment
1 2 3 4 5
accurate
x 4
Autoscroll
+/-
esc
set tempo
stop
Contributor
Hey! There's an official Ultimate Guitar app which is ideal
for learning songs when you're away from computer. Get the app
WARNING: You are trying to view
                                    content from Ultimate-Guitar.com
                                    in an unauthorized application,
                                    which is prohibited.

                                    Please use an official Ultimate
                                    Guitar Tabs application for iPhone,
                                    iPad or Android to access legitimate
                                    chords, guitar, bass, and drum tabs
                                    from Ultimate-Guitar.com database.

                                    Type "ultimate guitar tabs" in Apple
                                    App Store's or Android Market's
                                    search to find the application.
Zutons
Tired of Hanging Around
Tired of Hanging Aroun

Hi, This is my first tab, so please go easy on me!


Intro
-----
Guitar 1
-------------------------------------------------------|
-------------------------------------------------------|
-------------------------------------------------------|
------8-8-8-8s9--9--9--9--9--9--9--9--9--9--9--9-------|
------8-8-8-8s9--9--9--9--9--9--9--9--9--9--9--9-------|
------6-6-6-6s7--7--7--7--7--7--7--7--7--7--7--7-------|  X2


Guitar 1
----------------------------------------------------------|
----------------------------------------------------------|
----------------------------------------------------------|
------9--9--9--9--9--9--9--9--9--9--9--9--9--9--9--9------|
------9--9--9--9--9--9--9--9--9--9--9--9--9--9--9--9------|
------7--7--7--7--7--7--7--7--7--7--7--7--7--7--7--7------|

Guitar 2
----------------------------------------------------------|
------------12----------12----------12--------------------|
------9-----------9b----------9b-----------9--4~~---------|
----------------------------------------------------------|
----------------------------------------------------------|
----------------------------------------------------------|

Guitar 1
----------------------------------------------------------|
----------------------------------------------------------|
----------------------------------------------------------|
------8-8-8-8s9--9--9--9--9--9--9--9--9--9--9--9----------|
------8-8-8-8s9--9--9--9--9--9--9--9--9--9--9--9----------|
------6-6-6-6s7-7--7--7--7--7--7--7--7--7--7--7-----------|

Guitar 2
----------------------------------------------------------|
------------12----------12----------12--------------------|
------9-----------9b----------9b-----------9--7b----------|
----------------------------------------------------------|
----------------------------------------------------------|
----------------------------------------------------------|

Guitar 1
----------------------------------------------------------|
----------------------------------------------------------|
----------------------------------------------------------|
------8-8-8-8s9--9--9--9--9--9--9--9--9--9--9--9----------|
------8-8-8-8s9--9--9--9--9--9--9--9--9--9--9--9----------|
------6-6-6-6s7-7--7--7--7--7--7--7--7--7--7--7-----------|


Guitar 2
----------------------------------------------------------|
------------12----------12----------12--------------------|
------9-----------9b----------9b-----------9--4~~---------|
----------------------------------------------------------|
----------------------------------------------------------|
----------------------------------------------------------|

Guitar 1
----------------------------------------------------------|
----------------------------------------------------------|
----------------------------------------------------------|
------9--9--9--9--9--9--9--9--9--9--9--9--9--9--9--9------|
------9--9--9--9--9--9--9--9--9--9--9--9--9--9--9--9------|
------7--7--7--7--7--7--7--7--7--7--7--7--7--7--7--7------|

Guitar 2
----------------------------------------------------------|
------------12----------12----------12--------------------|
------9-----------9b----------9b-----------9--7b----------|
----------------------------------------------------------|
----------------------------------------------------------|
----------------------------------------------------------|

Verse 1
-------
Guitar 2
-14-14-14-14-14-14-14-14-14-14-14-14-14-14-14-14--------------|
--------------------------------------------------------------|
--------------------------------------------------------------|
--------------------------------------------------------------|
--------------------------------------------------------------|
--------------------------------------------------------| x 3-|

-14-14-14-14-14-14-14-14----------------------------------|
-----------------------15-15-15-15-15-15-15-15-15---------|
----------------------------------------------------------|
----------------------------------------------------------|
----------------------------------------------------------|
----------------------------------------------------------|


Guitar 1
------------------------------------------------------------|
------------------------------------------------------------|
------------------------------------------------------------|
------9--9--9--9--9--9--9--9--9--9--9--9--9--9--9--9--------|
------9--9--9--9--9--9--9--9--9--9--9--9--9--9--9--9--------|
------7--7--7--7--7--7--7--7--7--7--7--7--7--7--7--7--| x 4-|

Guitar 2 (play at same time with Guitar 1 above)
------------5v---------10v----------14v----------19v----|
-------3s5--------5s12--------12s15----------19---------|
--------------------------------------------------------|
--------------------------------------------------------|
--------------------------------------------------------|
--------------------------------------------------------| x 2

Chorus
------

Guitar 1
----------------------------------------------------------|
----------------------------------------------------------|
------7--7--7--7--7--7--7--7--7--7--7--7--7--7--7--7------|
------7--7--7--7--7--7--7--7--7--7--7--7--7--7--7--7------|
------5--5--5--5--5--5--5--5--5--5--5--5--5--5--5--5------|
----------------------------------------------------------|

Guitar 2
----------------------------------------------------------|
----------------------------------------------------------|
----------------------------------------------------------|
------7--7--------7--7--12b---7--7---------7--7--12b------|
------------12b---------------------12b-------------------|
----------------------------------------------------------|

Guitar 1
----------------------------------------------------------|
----------------------------------------------------------|
----------------------------------------------------------|
------4--4--4--4--4--4--4--4--4--4--4--4--4--4--4--4------|
------4--4--4--4--4--4--4--4--4--4--4--4--4--4--4--4------|
------2--2--2--2--2--2--2--2--2--2--2--2--2--2--2--2------|

Guitar 2
----------------------------------------------------------|
----------------------------------------------------------|
----------------------------------------------------------|
------7--7--------7--7--11b---7--7---------7--7--11b------|
------------10b---------------------10b-------------------|
----------------------------------------------------------|

--------------------------------------------------------------|
--------------------------------------------------------------|
------4--4--4--4--4--4--4--4--4--4--4--4--4--4--4--4----------|
------4--4--4--4--4--4--4--4--4--4--4--4--4--4--4--4----------|
------2--2--2--2--2--2--2--2--2--2--2--2--2--2--2--2----------|
--------------------------------------------------------| x 2-|

Guitar 2
-------------------------------------------------------------|
-------------------------12b----------------------12b--------|
------------11b---------------------11b----------------------|
------7--7---------7--7-------7--7---------7--7--------------|
-------------------------------------------------------------|
--------------------------------------------------------|x 2-|


Verse 2
------

Guitar 2
------------5v---------10v----------14v----------19v----|
-------3s5--------5s12--------10s15----------19---------|
--------------------------------------------------------|
--------------------------------------------------------|
--------------------------------------------------------|
--------------------------------------------------------| x 2

Guitar 1
------------------------------------------------------------|
------------------------------------------------------------|
------------------------------------------------------------|
------9--9--9--9--9--9--9--9--9--9--9--9--9--9--9--9--------|
------9--9--9--9--9--9--9--9--9--9--9--9--9--9--9--9--------|
------7--7--7--7--7--7--7--7--7--7--7--7--7--7--7--7--| x 4-|

Guitar 2
-14-14-14-14-14-14-14-14-14-14-14-14-14-14-14-14--------------|
--------------------------------------------------------------|
--------------------------------------------------------------|
--------------------------------------------------------------|
--------------------------------------------------------------|
--------------------------------------------------------| x 3-|

-14-14-14-14-14-14-14-14----------------------------------|
-----------------------15-15-15-15-15-15-15-15-15---------|
----------------------------------------------------------|
----------------------------------------------------------|
----------------------------------------------------------|
----------------------------------------------------------|

Chorus
------

Guitar 1
----------------------------------------------------------|
----------------------------------------------------------|
------7--7--7--7--7--7--7--7--7--7--7--7--7--7--7--7------|
------7--7--7--7--7--7--7--7--7--7--7--7--7--7--7--7------|
------5--5--5--5--5--5--5--5--5--5--5--5--5--5--5--5------|
----------------------------------------------------------|

Guitar 2
----------------------------------------------------------|
----------------------------------------------------------|
----------------------------------------------------------|
------7--7--------7--7--12b---7--7---------7--7--12b------|
------------12b---------------------12b-------------------|
----------------------------------------------------------|

Guitar 1
----------------------------------------------------------|
----------------------------------------------------------|
----------------------------------------------------------|
------4--4--4--4--4--4--4--4--4--4--4--4--4--4--4--4------|
------4--4--4--4--4--4--4--4--4--4--4--4--4--4--4--4------|
------2--2--2--2--2--2--2--2--2--2--2--2--2--2--2--2------|

Guitar 2
----------------------------------------------------------|
----------------------------------------------------------|
----------------------------------------------------------|
------7--7--------7--7--11b---7--7---------7--7--11b------|
------------10b---------------------10b-------------------|
----------------------------------------------------------|

--------------------------------------------------------------|
--------------------------------------------------------------|
------4--4--4--4--4--4--4--4--4--4--4--4--4--4--4--4----------|
------4--4--4--4--4--4--4--4--4--4--4--4--4--4--4--4----------|
------2--2--2--2--2--2--2--2--2--2--2--2--2--2--2--2----------|
--------------------------------------------------------| x 2-|

Guitar 2
-------------------------------------------------------------|
-------------------------12b----------------------12b--------|
------------11b---------------------11b----------------------|
------7--7---------7--7-------7--7---------7--7--------------|
-------------------------------------------------------------|
--------------------------------------------------------|x 2-|
solo
----

Guitar 1
----------------------------------------------------------|
----------------------------------------------------------|
---------12~-------11~-----------------9~-------7~--------|
---------12~-------11~-----------------9~-------7~--------|
---------10~-------9-~-----------------7~-------5~--------|
----------------------------------------------------------|

Guitar 1
----------------------------------------------------------|
----------------------------------------------------------|
---------12~-------11~-----------------9~-------7~---6----|
---------12~-------11~-----------------9~-------7~---6----|
---------10~-------9-~-----------------7~-------5~---4----|
----------------------------------------------------------|

Guitar 2 (play over guitar 1 above)
----------------------------------------------------------|
----------------------------------------------------------|
----------------12s17-15~~------------------12s17-15~~----|
--12h14h16~~------------------12h14h16~~------------------|
----------------------------------------------------------|
----------------------------------------------------------|

--------------------------------------------------------------|
--------------------------------------------------------------|
---------------12s17-15-17-17b---15h17---17brb17--15-14~------|
--12h14h16~~--------------------------------------------------|
--------------------------------------------------------------|
--------------------------------------------------------------|

Guitar 1
-------------------------------------------------------------|
-------------------------------------------------------------|
-------------------------------------------------------------|
------9-----9-----9-----9-----9-----9-----9-----9------------|
------9-----9-----9-----9-----9-----9-----9-----9------------|
------7-----7-----7-----7-----7-----7-----7-----7------| x 3-|

Guitar 2
--------------------------------------------------------|
--------------------------------------------------------|
--------------------------------------------------------|
------9~~-----------------------------------------------|
------9~~-----------------------------------------------|
------7~~-----------------------------------------------| x 3

Guitar 1
----------------------------------------------------------|
----------------------------------------------------------|
----------------------------------------------------------|
------9--9--9--9--9--9--9--9--9--9--9--9--9--9------------|
------9--9--9--9--9--9--9--9--9--9--9--9--9--9------------|
------7--7--7--7--7--7--7--7--7--7--7--7--7--7------------|
          p.m p.m           >>>>Gradually get louder

Chorus
------

Guitar 1
----------------------------------------------------------|
----------------------------------------------------------|
------7--7--7--7--7--7--7--7--7--7--7--7--7--7--7--7------|
------7--7--7--7--7--7--7--7--7--7--7--7--7--7--7--7------|
------5--5--5--5--5--5--5--5--5--5--5--5--5--5--5--5------|
----------------------------------------------------------|

Guitar 2
----------------------------------------------------------|
----------------------------------------------------------|
----------------------------------------------------------|
------7--7--------7--7--12b---7--7---------7--7--12b------|
------------12b---------------------12b-------------------|
----------------------------------------------------------|

Guitar 1
----------------------------------------------------------|
----------------------------------------------------------|
----------------------------------------------------------|
------4--4--4--4--4--4--4--4--4--4--4--4--4--4--4--4------|
------4--4--4--4--4--4--4--4--4--4--4--4--4--4--4--4------|
------2--2--2--2--2--2--2--2--2--2--2--2--2--2--2--2------|

Guitar 2
----------------------------------------------------------|
----------------------------------------------------------|
----------------------------------------------------------|
------7--7--------7--7--11b---7--7---------7--7--11b------|
------------10b---------------------10b-------------------|
----------------------------------------------------------|

--------------------------------------------------------------|
--------------------------------------------------------------|
------4--4--4--4--4--4--4--4--4--4--4--4--4--4--4--4----------|
------4--4--4--4--4--4--4--4--4--4--4--4--4--4--4--4----------|
------2--2--2--2--2--2--2--2--2--2--2--2--2--2--2--2----------|
--------------------------------------------------------| x 2-|

Guitar 2
-------------------------------------------------------------|
-------------------------12b----------------------12b--------|
------------11b---------------------11b----------------------|
------7--7---------7--7-------7--7---------7--7--------------|
-------------------------------------------------------------|
--------------------------------------------------------|x 2-|


Guitar 1
----------------------------------------------------------|
----------------------------------------------------------|
------7--7--7--7--7--7--7--7--7--7--7--7--7--7--7--7------|
------7--7--7--7--7--7--7--7--7--7--7--7--7--7--7--7------|
------5--5--5--5--5--5--5--5--5--5--5--5--5--5--5--5------|
----------------------------------------------------------|

Guitar 2
----------------------------------------------------------|
----------------------------------------------------------|
----------------------------------------------------------|
------7--7--------7--7--12b---7--7---------7--7--12b------|
------------12b---------------------12b-------------------|
----------------------------------------------------------|

Guitar 1
----------------------------------------------------------|
----------------------------------------------------------|
----------------------------------------------------------|
------4--4--4--4--4--4--4--4--4--4--4--4--4--4--4--4------|
------4--4--4--4--4--4--4--4--4--4--4--4--4--4--4--4------|
------2--2--2--2--2--2--2--2--2--2--2--2--2--2--2--2------|

Guitar 2
----------------------------------------------------------|
----------------------------------------------------------|
----------------------------------------------------------|
------7--7--------7--7--11b---7--7---------7--7--11b------|
------------10b---------------------10b-------------------|
----------------------------------------------------------|

--------------------------------------------------------------|
--------------------------------------------------------------|
------4--4--4--4--4--4--4--4--4--4--4--4--4--4--4--4----------|
------4--4--4--4--4--4--4--4--4--4--4--4--4--4--4--4----------|
------2--2--2--2--2--2--2--2--2--2--2--2--2--2--2--2----------|
--------------------------------------------------------| x 2-|

Guitar 2
-------------------------------------------------------------|
-------------------------12b----------------------12b--------|
------------11b---------------------11b----------------------|
------7--7---------7--7-------7--7---------7--7--------------|
-------------------------------------------------------------|
--------------------------------------------------------|x 2-|

Outro
-----

Guitar 1
-----------------------------------------------------------------------|
-----------------------------------------------------------------------|
---4----4-2----4----4-2-----4-2----------------------------------------|
---------------------------------4-2b4-2-0-----------------------------|
--------------------------------------------2--------------------------|
-----------------------------------------------------------------------|

Guitar 2
-------------------------------------------------------------------------|
-------------------------------------------------------------------------|
--14b-14b-14b-14b-14b-14b-14b-14b-14b-14b-14b-14b-14b-14b-14b-14b--------|
-------------------------------------------------------------------------|
-------------------------------------------------------------------------|
-------------------------------------------------------------------------|

Guitar 1
-------------------------------------------------------------------------|
-------------------------------------------------------------------------|
-------------------------------------------------------------------------|
-------------------------------------------------------------------------|
---2----2-0----2----2-0----2-0--------0---2------------------------------|
--------------------------------2-0h2---2--------------------------------|

-------------------------------------------------------------------------|
-------------------------------------------------------------------------|
--17b-17b-17b-17b-17b-17b-17b-17b-17b-17b-17b-17b-17b-17b-17b-17b--------|
-------------------------------------------------------------------------|
-------------------------------------------------------------------------|
-------------------------------------------------------------------------|

Guitar 1
-----------------------------------------------------------------------|
-----------------------------------------------------------------------|
-----------------------------------------------------------------------|
------------------------------0-2-2b4-2-0------------------------------|
---2----2-0----2----2-0----2--------------2----------------------------|
-----------------------------------------------------------------------|

----------------------------------------------------------------------|
--19b-19b-19b-19b19b-19b-19b-19b-19b-19b-19b-19b19b-19b-19b-19b-------|
----------------------------------------------------------------------|
----------------------------------------------------------------------|
----------------------------------------------------------------------|
----------------------------------------------------------------------|

Guitar 1
-------------------------------------------------------------------------|
-------------------------------------------------------------------------|
-------------------------------------------------------------------------|
-------------------------------------------------------------------------|
---2----2-0----2----2-0----2----0----2~~---------------------------------|
-------------------------------------------------------------------------|

-----------------------------------18b19-(let ring)----------------------|
--19b-19b-19b-19b19b-19b-19b-19b-----------------------------------------|
-------------------------------------------------------------------------|
-------------------------------------------------------------------------|
-------------------------------------------------------------------------|
-------------------------------------------------------------------------|
comments
print report bad tab
I want to post or [tab]
guest
You may want to rate the tab now too:
select rating
Please do not post tabs as comments. Select "correction" instead!