Oops, an error
Loading. Please wait.

Cant Stop Rockin Tab

ver1
ver1

Whole song

Interactive

More versions @911Tabs.com
4,707 views 9 this week
1 commentread comment
1 2 3 4 5
accurate
x 1
Autoscroll
+/-
esc
set tempo
stop
Contributor
Difficulty
intermediate
Hey! There's an official Ultimate Guitar app which is ideal
for learning songs when you're away from computer. Get the app
WARNING: You are trying to view
                                    content from Ultimate-Guitar.com
                                    in an unauthorized application,
                                    which is prohibited.

                                    Please use an official Ultimate
                                    Guitar Tabs application for iPhone,
                                    iPad or Android to access legitimate
                                    chords, guitar, bass, and drum tabs
                                    from Ultimate-Guitar.com database.

                                    Type "ultimate guitar tabs" in Apple
                                    App Store's or Android Market's
                                    search to find the application.
                                CAN'T STOP ROCKIN
                              As recorded by ZZ Top

Transcribed by Brian Murtagh

Gtr I (E A D G B E) - 'Billy Gibbons'
Gtr II (E A D G B E) - 'Lead'

 Intro
  Q=150
 4/4
  Gtr I
  E E E E E E E E   E E E E H      E E E E E E E E   E E E E +H
|-----------------|--------------|-----------------|---------------------|
|-----------------|--------------|-----------------|---------------------|
|-----------------|--------------|-----------------|---------------------|
|---5s3---5-5s3---|-5-5-3-5------|---5s3---5-5s3---|-5-5-3-5-(5)---------|
|---5s3---5-5s3---|-5-5-3-5------|---5s3---5-5s3---|-5-5-3-5-(5)---------|
|-------3-------3-|--------------|-------3-------3-|---------------------|
|
| Gtr II
| W                 W              W                 H        E  E  E  E
|-----------------|--------------|-----------------|---------------------|
|-----------------|--------------|-----------------|---------------------|
|-----------------|--------------|-----------------|---------10--7-10s12-|
|-----------------|--------------|-----------------|---------------------|
|-----------------|--------------|-----------------|---------------------|
|-----------------|--------------|-----------------|---------------------|


  $
    E  E E E E E E E   E E E E +H
|--------------------|---------------------|
|--------------------|---------------------|
|--------------------|---------------------|
|------5s3---5-5s3---|-5-5-3-5-(5)---------|
|------5s3---5-5s3---|-5-5-3-5-(5)---------|
|----------3-------3-|---------------------|
|
| Gtr II
|   ~~~~
|  +W                  H        E  E  E  E
|--------------------|---------------------|
|--------------------|---------------------|
|-(12)---------------|-------------7-10s12-|
|--------------------|---------------------|
|--------------------|---------------------|
|--------------------|---------------------|


                      4/4
    E  E E E E E E E   E E E E +H
|--------------------|--------------------|
|--------------------|--------------------|
|--------------------|--------------------|
|------5s3---5-5s3---|-5-5-3-5-(5)--------|
|------5s3---5-5s3---|-5-5-3-5-(5)--------|
|----------3-------3-|--------------------|
|
|   ~~~~
|  +W                  H        E  E  E E
|--------------------|--------------------|
|--------------------|--------------------|
|-(12)---------------|-------------7-10---|
|--------------------|--------------------|
|--------------------|--------------------|
|--------------------|--------------------|


   Verse
          PM             PM
    E E E E H      E E E E H     4x
||---------------|---------------||
||o--------------|--------------o||
||---------------|---------------||
||----5-----5----|---5-----5-----||
||o---5-----5----|---5-----5----o||
||----3---3-3----|---3---3-3-----||


 Chorus
  W          E E E E +H       W           E E  E  E  +H
|----------|----------------|----------|--------------------|
|----------|----------------|----------|--------------------|
|-5--------|-5---5s3-(3)----|----------|-12---12s10-(10)----|
|-5--------|-5---5s3-(3)----|-5--------|-12---12s10-(10)----|
|-3--------|----------------|-5--------|--------------------|
|----------|----------------|-3--------|--------------------|


   D.S. al Coda
  W          W
|----------|-------|
|----------|-------|
|-7--------|-7-----|
|-7--------|-7-----|
|-5--------|-5-----|
|----------|-------|


  &
  E E E E E E E E   E E E E +H
|-----------------|---------------------|
|-----------------|---------------------|
|-----------------|---------------------|
|---5s3---5-5s3---|-5-5-3-5-(5)---------|
|---5s3---5-5s3---|-5-5-3-5-(5)---------|
|-------3-------3-|---------------------|
|
| Gtr II
|                   H        E  E  E  E
|-----------------|---------------------|
|-----------------|---------------------|
|-----------------|---------10--7-10s12-|
|-----------------|---------------------|
|-----------------|---------------------|
|-----------------|---------------------|


    E  E E E E E E E   E E E E +H
|--------------------|---------------------|
|--------------------|---------------------|
|--------------------|---------------------|
|------5s3---5-5s3---|-5-5-3-5-(5)---------|
|------5s3---5-5s3---|-5-5-3-5-(5)---------|
|----------3-------3-|---------------------|
|
|   ~~~~
|  +W                  H        E  E  E  E
|--------------------|---------------------|
|--------------------|---------------------|
|-(12)---------------|-------------7-10s12-|
|--------------------|---------------------|
|--------------------|---------------------|
|--------------------|---------------------|


  Gtr I
   E    E  E       E    E   E E E   E  E    E E +H
|---------------------------------|------------------------|
|---------------------------------|------------------------|
|---------------------------------|------------------------|
|-------5s=3------------5---5s3---|-5--5----3-5-(5)--------|
|-------5s=3------------5---5s3---|-5--5----3-5-(5)--------|
|------------------3------------3-|------------------------|
|
| Gtr II
|                       ~~~~~
|  Q       E      +E   +H           E  Q      E  E  E  E E
|---------------------------------|------------------------|
|-11b12---11b12==(11)-(11)r-------|---11b12---8----------8-|
|---------------------------------|--------------7--7-10---|
|---------------------------------|------------------------|
|---------------------------------|------------------------|
|---------------------------------|------------------------|


      E   E E E E E E  E          E  E E E +H
|-----------------------------|----------------------------|
|-----------------------------|----------------------------|
|-----------------------------|----------------------------|
|---------5s3---5-5s3---------|---5--5-3-5-(5)-------------|
|---------5s3---5-5s3---------|---5--5-3-5-(5)-------------|
|-------------3--------3------|----------------------------|
|
|     ~~~~
|  a  H..              E         +H..             +S   S
|-----------------------------|----------------------------|
|---------------------13pb15==|=(13)r============(13)-11---|
|-10-12---------------12pb14==|=(12)r============(12)------|
|-----------------------------|----------------------------|
|-----------------------------|----------------------------|
|-----------------------------|----------------------------|


  Gtr I
   E   E E E E E E   E        E  E  E    E +H
|--------------------------|--------------------------------|
|--------------------------|--------------------------------|
|------5s3---5-5s3---------|--5--5--3----5-(5)--------------|
|------5s3---5-5s3---------|--5--5--3----5-(5)--------------|
|----------3---------3-----|--------------------------------|
|--------------------------|--------------------------------|
|
| Gtr II
|  ~~~~~~~~~~~~~~~~~~~~~
|  H..              +S   S    E  E  Q       Q      E  E
|--------------------------|--------------------------------|
|--------------------------|-11-13-13b15---11b12--13-11b13==|
|-12---------------(12)-12-|--------------------------------|
|--------------------------|--------------------------------|
|--------------------------|--------------------------------|
|--------------------------|--------------------------------|


    E   E  E  E   E  E  E  E     E  E E E +H
|----------------------------|---------------------|
|----------------------------|---------------------|
|----------------------------|---------------------|
|-------5s=3------5--5s=3----|---5--5-3-5-(5)------|
|-------5s=3------5--5s=3----|---5--5-3-5-(5)------|
|-------------3------------3-|---------------------|
|
|                 ~~~~
|  +Q      E  E  +Q     E  E    +Q    E e  Q   e E
|----------------------------|---------------------|
|-(11)r---11-----------11----|----------3------3-6-|
|------------12-(12)------12-|-(12)----------------|
|----------------------------|---------------------|
|----------------------------|---------------------|
|----------------------------|---------------------|


  Gtr I
    W                   W                       E E E E E E E E
|---------------------|-----------------------|-----------------|
|---------------------|-----------------------|-----------------|
|---7-----------------|-7---------------------|-----------------|
|---7-----------------|-7---------------------|---5s3---5-5s3---|
|---5-----------------|-5---------------------|---5s3---5-5s3---|
|---------------------|-----------------------|-------3-------3-|
|
| Gtr II
|                             ~~~               ~
|   |--3--|                       |-3-| |-3-|
| a Q a Q Q E E +E  E   Q    +Q   E E E E E E   H       E E E E
|-3h5-3h5-3-----------|-----------3-----------|-----------------|
|-----------6-3-(3)-3-|-6b8--(6)----6-3-------|---------3-5---3-|
|---------------------|-----------------5-3---|-------------5---|
|---------------------|---------------------5-|-5---------------|
|---------------------|-----------------------|-----------------|
|---------------------|-----------------------|-----------------|


  Gtr I
  E E  E  E +H                E E E E E E E E     E   E E  E +H
|--------------------------|------------------|-----------------------------|
|--------------------------|------------------|-----------------------------|
|--------------------------|------------------|-----------------------------|
|-5-5--3--5-(5)------------|----5s3---5-5s3---|---5---5-3--5-(5)------------|
|-5-5--3--5-(5)------------|----5s3---5-5s3---|---5---5-3--5-(5)------------|
|--------------------------|--------3-------3-|-----------------------------|
|
| Gtr II
|      ~~~                    ~~
| E E +Q     E  E  a  E  E    W                  +Q     Q.       E  a  E  E
|--------------------------|------------------|-----------------------------|
|--------------------------|------------------|-----------------------------|
|-3-------------7-10s12-12-|-12---------------|-(12)\------------7-10s12-12-|
|---5-(5)------------------|------------------|-----------------------------|
|--------------------------|------------------|-----------------------------|
|--------------------------|------------------|-----------------------------|


                                \0.25/  \0.25/  \0.25/  \0.25/
    E  E E E E E E E   E E E E +E      +E      +E      +E
|--------------------|------------------------------------------|
|--------------------|------------------------------------------|
|--------------------|------------------------------------------|
|------5s3---5-5s3---|-5-5-3-5-(5)-----(5)-----(5)-----(5)------|
|------5s3---5-5s3---|-5-5-3-5-(5)-----(5)-----(5)-----(5)------|
|----------3-------3-|------------------------------------------|
|
|   ~~~~
|  +W
|--------------------|------------------------------------------|
|--------------------|------------------------------------------|
|-(12)---------------|------------------------------------------|
|--------------------|------------------------------------------|
|--------------------|------------------------------------------|
|--------------------|------------------------------------------|


  Gtr I
  E E E E E E E E   E E E E +H
|-----------------|------------------------|
|-----------------|------------------------|
|-----------------|------------------------|
|---5s3---5-5s3---|-5-5-3-5-(5)------------|
|---5s3---5-5s3---|-5-5-3-5-(5)------------|
|-------3-------3-|------------------------|
|
| Gtr II
| W                 H        E  E  a  E  E
|-----------------|------------------------|
|-----------------|------------------------|
|-----------------|-------------7-10s12-12-|
|-----------------|------------------------|
|-----------------|------------------------|
|-----------------|------------------------|


     E E E E E E E E   E E E E +H
||-------------------|---------------------------||
||o------------------|--------------------------o||
||-------------------|-5---5s3-(3)---------------||
||-----5s3---5-5s3---|-5---5s3-(3)---------------||
||o----5s3---5-5s3---|--------------------------o||
||---------3-------3-|---------------------------||
|
|    ~~
|    W                 H        E  E  a  E  E
||-------------------|---------------------------||
||o------------------|--------------------------o||
||--12---------------|-------------7-10s12-12----||
||-------------------|---------------------------||
||o------------------|--------------------------o||
||-------------------|---------------------------||


   Verse
          PM             PM
    E E E E H      E E E E H     4x
||---------------|---------------||
||o--------------|--------------o||
||---------------|---------------||
||----5-----5----|---5-----5-----||
||o---5-----5----|---5-----5----o||
||----3---3-3----|---3---3-3-----||


 Chorus
  W          E E E E +H       W           E E  E  E  +H
|----------|----------------|----------|--------------------|
|----------|----------------|----------|--------------------|
|-5--------|-5---5s3-(3)----|----------|-12---12s10-(10)----|
|-5--------|-5---5s3-(3)----|-5--------|-12---12s10-(10)----|
|-3--------|----------------|-5--------|--------------------|
|----------|----------------|-3--------|--------------------|


  W          W
|----------|------|
|----------|------|
|-7--------|-7----|
|-7--------|-7----|
|-5--------|-5----|
|----------|------|


    Gtr I
      E  E E E E E E E   E E E E +H              4x
||---------------------|-------------------------||
||o--------------------|------------------------o||
||---------------------|-------------------------||
||-------5s3---5-5s3---|-5-5-3-5-(5)-------------||
||o------5s3---5-5s3---|-5-5-3-5-(5)------------o||
||-----------3-------3-|-------------------------||
|
|   Gtr II
|     ~~~~
|     W                  H        E  E  a  E  E  4x
||---------------------|-------------------------||
||o--------------------|------------------------o||
||--(12)---------------|-------------7-10s12-12--||
||---------------------|-------------------------||
||o--------------------|------------------------o||
||---------------------|-------------------------||


  Gtr I
  E E E E E E E E   E  E E  E +H
|-----------------|---------------------------|
|-----------------|---------------------------|
|-----------------|---------------------------|
|---5s3---5-5s3---|-5--5-3--5-(5)-------------|
|---5s3---5-5s3---|-5--5-3--5-(5)-------------|
|-------3-------3-|---------------------------|
|
| Gtr II
| W                 Q.      E  E   E  E  E
|-----------------|---------------------------|
|-----------------|---------------------11b12-|
|-----------------|--------12-12--12-12-------|
|-----------------|---------------------------|
|-----------------|---------------------------|
|-----------------|---------------------------|


    E  E E   E  E E E E   E E E E +H
|-----------------------|--------------------------------|
|-----------------------|--------------------------------|
|-----------------------|--------------------------------|
|------5s3------5-5s3---|-5-5-3-5-(5)--------------------|
|------5s3------5-5s3---|-5-5-3-5-(5)--------------------|
|------------3--------3-|--------------------------------|
|
|  +Q.       E  H         H        E       +E   +E  S  S
|-----------------------|--------------------------------|
|-(11)------------------|---------13pb15==(13)r(13)---11-|
|----------(10)---------|---------12pb14==(12)r(12)------|
|-----------------------|--------------------------------|
|-----------------------|--------------------------------|
|-----------------------|--------------------------------|


  Gtr I
   E E E E E E E E    E E E E +H
|------------------|-----------------|------------|----|
|------------------|-----------------|------------|----|
|----5s3---5-5s3---|--5-5-3-5-(5)----|------------|----|
|----5s3---5-5s3---|--5-5-3-5-(5)----|------------|----|
|--------3-------3-|-----------------|------------|----|
|------------------|-----------------|------------|----|
|
| Gtr II
|  ~~
|  H
|------------------|-----------------|------------|----|
|------------------|-----------------|------------|----|
|-12---------------|-----------------|------------|----|
|------------------|-----------------|------------|----|
|------------------|-----------------|------------|----|
|------------------|-----------------|------------|----|


comments
We did not receive enough feedback on this tab! Please rate:
print report bad tab
1 2 3 4 5
1 comment total.
0 reply
zaxx wrote on December 17 2009, 03:40 pm

GREAT ! tnx man ! :D

I want to post or [tab]
guest
You may want to rate the tab now too:
select rating
Please do not post tabs as comments. Select "correction" instead!