Oops, an error
Loading. Please wait.

Cheap Sunglasses Tab

ver2
ver2

Whole song

More versions @911Tabs.com
10,988 views 33 this week
1 commentread comment
1 2 3 4 5
accurate
x 2
Autoscroll
+/-
esc
set tempo
stop
Contributor
WARNING: You are trying to view
                                    content from Ultimate-Guitar.com
                                    in an unauthorized application,
                                    which is prohibited.

                                    Please use an official Ultimate
                                    Guitar Tabs application for iPhone,
                                    iPad or Android to access legitimate
                                    chords, guitar, bass, and drum tabs
                                    from Ultimate-Guitar.com database.

                                    Type "ultimate guitar tabs" in Apple
                                    App Store's or Android Market's
                                    search to find the application.
#----------------------------------PLEASE NOTE---------------------------------#
#This file is the author's own work and represents their interpretation of the #
#song. You may only use this file for private study, scholarship, or research. #
#------------------------------------------------------------------------------#

CHEAP SUNGLASSES
As recorded by ZZ Top
(From the 1979 Album DEGUELLO)

Transcribed by http://www.mikesguitarsite.co.uk
        



Gtr I (E A D G B E) - 'Rhythm overdrive'
Gtr II (E A D G B E) - 'Interlude FX'
Gtr III (E A D G B E) - 'Lead light distortion'

 Intro
  Q=100
 4/4
  Gtr I
           PM--------|
  S E. S S S S S S S S S S S S
|------------------------------|
|-5s6--------------------------|
|-6s7------------------0---0---|
|-7s8----0-0-0---0-------------|
|----------------------1---3---|
|----------1-3---3---3---------|


           PM--------|                    PM--------|
  S E. S S S S S S S S S S S S   S E. S S S S S S S S S S S S
|------------------------------|-------------------------------|
|-5s6--------------------------|-5s6---------------------------|
|-6s7------------------0---0---|-6s7------------------0---0----|
|-7s8----0-0-0---0-------------|-7s8----0-0-0---0--------------|
|----------------------1---3---|----------------------1---3----|
|----------1-3---3---3---------|----------1-3---3---3----------|


 4/4
           PM--------|
  S E. S S S S S S S S S S S S
|------------------------------|
|-5s6--------------------------|
|-6s7------------------0---0---|
|-7s8----0-0-0---0-------------|
|----------------------1---3---|
|----------1-3---3---3---------|


   Verse 1, 2 & 3
             PM--------|                    PM--------|
    S E. S S S S S S S S S S S S   S E. S S S S S S S S S S S S
||-------------------------------|-------------------------------|
||o-5s6--------------------------|-5s6---------------------------|
||--6s7------------------0---0---|-6s7------------------0---0----|
||--7s8----0-0-0---0-------------|-7s8----0-0-0---0--------------|
||o----------------------1---3---|----------------------1---3----|
||-----------1-3---3---3---------|----------1-3---3---3----------|


 4/4
           PM--------|
  S E. S S S S S S S S S S S S
|------------------------------|
|-5s6--------------------------|
|-6s7------------------0---0---|
|-7s8----0-0-0---0-------------|
|----------------------1---3---|
|----------1-3---3---3---------|


           PM--------|                    PM--------|
  S E. S S S S S S S S S S S S   S E. S S S S S S S S S S S S
|------------------------------|-------------------------------|
|-5s6--------------------------|-5s6---------------------------|
|-6s7------------------0---0---|-6s7------------------0---0----|
|-7s8----0-0-0---0-------------|-7s8----0-0-0---0--------------|
|----------------------1---3---|----------------------1---3----|
|----------1-3---3---3---------|----------1-3---3---3----------|


           PM--------|
  S E. S S S S S S S S S S S S   S S E Q  H
|------------------------------|---------------|
|-5s6--------------------------|-5s6-----------|
|-6s7------------------0---0---|-6s7-----------|
|-7s8----0-0-0---0-------------|-7s8-----------|
|----------------------1---3---|---------------|
|----------1-3---3---3---------|---------------|


 Chorus
  PM--------------|          PM
  S S S S S S S S S S S S E. S
|--------------------------------|
|--------------------------------|
|-----------------0---0---0------|
|-0-0---0---0----------------0---|
|-----------------1---3---1------|
|-3-3---1---3---3----------------|


  PM--------------|          PM------------------|          PM
  S S S S S S S S S S S S E. S   S S S S S S S S S S S S E. S
|------------------------------|-------------------------------|
|------------------------------|-------------------------------|
|-----------------0---0---0----|-----------------0---0---0-----|
|-0-0---0---0----------------0-|-0-0---0---0----------------0--|
|-----------------1---3---1----|-----------------1---3---1-----|
|-3-3---1---3---3--------------|-3-3---1---3---3---------------|


                                   Interlude
                     To Coda
                                    Gtr II
  PM--------|                        ~~~~~~~~~~        ~~~~~~~~~
  S S S S S E. S S S S S E.          H     +Q    E  S  S    +W      4x
|----------------------------||-||-----------------------|----------||
|------------------------5--o||-||o-13----(13)-----13-12-|-(12)----o||
|--------------3-5-----5-5---||-||--14----(14)-----14-13-|-(13)-----||
|-0-0---0---0------------5---||-||--15----(15)-----15-14-|-(14)-----||
|------------------3-3------o||-||o----------------------|---------o||
|-3-3---1---3----------------||-||-----------------------|----------||


 Guitar Solo
  Gtr III
        PM          ~~
  E.    S  S   S S  S  +E   S S  S S  S S
|-----------------------------------------|
|-----------------------------------------|
|----------------------------------8------|
|----------8--10---10-(10)-10-8-10---10---|
|------10---------------------------------|
|-----------------------------------------|
|
| Gtr I
| S E.     s   S S  s   E   s S  S S  S S
|-----------------------------------------|
|-3h4-----(4)-------4-------4------4p=3---|
|-3-------(3)-------3-------3------3------|
|-3h5-----(5)-------5-------5------5p=3---|
|---------------------------------------3-|
|-----------------------------------------|


        PM|                                         PM
  E.    S  S   S S a  S  +S  S  S S S E.      E.    S  S   S S  S S  E   S  S E.
|-------------------------------------------|-----------------------------------------|
|-------------------------------------------|-----------------------------------------|
|-------------------------------------------|-----------------------------------------|
|----------8--10---8h10-(10)-8--------------|----------8--10---10---10---8s10---------|
|------10----------------------10-9-8s6-----|------10---------------------------------|
|-------------------------------------------|-----------------------------------------|
|
| S E.     s   S S    s   E     s S S S S S   S E.     s   S S  s E    s S  S S S S
|-------------------------------------------|-----------------------------------------|
|-3h4-----(4)---------4---------4-----4p3---|-3h4-----(4)-------4------4------4p3-----|
|-3-------(3)---------3---------3-----3-----|-3-------(3)-------3------3------3-------|
|-3h5-----(5)---------5---------5-----5p3---|-3h5-----(5)-------5------5------5p3-----|
|-----------------------------------------3-|-------------------------------------3---|
|-------------------------------------------|-----------------------------------------|


           PM---|
  Q     S  S  S S  S S  S S S S E
|---------------------------------|
|---------------------------------|
|-----------------10--------------|
|---------------8-10-8------------|
|----------8h10--------10-9-8s6---|
|---------------------------------|
|
| S E.  s  S  S s  E    s S S s E
|---------------------------------|
|-3h4--(4)------4-------4-----4---|
|-3----(3)------3-------3-----3---|
|-3h5--(5)------5-------5-----5---|
|---------------------------------|
|---------------------------------|


       PM--|   ~~                           PM--------|
  Q  S S S S S E. +E    E     Q    E    E S S E   S S E
|---------------------------|----------------------------|
|---------------------------|----------------------------|
|---------------------------|------8b10-------------6----|
|--------6-8---8--(8)-------|---------------8-----8---8s=|
|------8--------------------|----------------------------|
|---------------------------|----------------------------|
|
| q  s S S s Q     S  S S S   S E. Q      s S S s Q
|---------------------------|----------------------------|
|-3--3-----3----------3p1---|-1-3---------3-----3--------|
|-3--3-----3----------3p1---|-1-3---------3-----3--------|
|-3--3-----3----------3p1---|-1-3---------3-----3--------|
|-------------------------1-|----------------------------|
|---------------------------|----------------------------|


   PM-----|                        PM--|
   S S  S  S  S   S S  S S  E   a  S S  S E
|---------------------------------------------|
|---------------------------------------------|
|---------------------------------------------|
|-10----------8--10---10---10---8h10---10-----|
|---------10----------------------------------|
|---------------------------------------------|
|
|  S E.       s   S S  s E    s    S S  S S S
|---------------------------------------------|
|--3h4-------(4)-------4------4---------4p3---|
|--3---------(3)-------3------3---------3-----|
|--3h5-------(5)-------5------5---------5p3---|
|-------------------------------------------3-|
|---------------------------------------------|


         PM|                                  PM-----------| ~~
  Q    S S  S S  S S  S S S S E   Q    E.     S  S E  S    S E.
|-------------------------------|-----------------------------------|
|-------------------------------|-----------------------------------|
|-------------------------------|-----------------------------------|
|-------------8-10-8------------|-----------------------------------|
|--------8h10--------10-9-8-6---|----------------3-5-------3-5------|
|-----------------------------8-|------------(5)-----(5)------------|
|
| S E. S E.      s S  S s Q       S E. S  E.     s S  S  s S s  E
|-------------------------------|-----------------------------------|
|-3h4--4---------4------4-------|-5h6--6---------6-------6---6------|
|-3----3---------3------3-------|-5----5---------5-------5---5------|
|-3h5--5---------5------5-------|-5h7--7---------7-------7---7------|
|-------------------------------|-----------------------------------|
|-------------------------------|-----------------------------------|


                                  Interlude
                                   Gtr II
  PM        ~             ~         ~~~~~~~~~~       ~~~~~~~~~
  E E S S S S +E    S S S E S       H     +Q   E  S  S    +W      4x
|------------------------------||----------------------|----------||
|------------------------------||o-13----(13)----13-12-|-(12)----o||
|------------------------------||--14----(14)----14-13-|-(13)-----||
|------------------------------||--15----(15)----15-14-|-(14)-----||
|-3-------3-5-(5)p==3---3h5----||o---------------------|---------o||
|-------5-------------5--------||----------------------|----------||
|
| Q   Q        S  S S S Q           W                      W      4x
|------------------------------||----------------------|----------||
|-7---7--------7------x--------||o---------------------|---------o||
|-7---7--------7------x--------||----------------------|----------||
|-7---7--------7------x--------||----------------------|----------||
|------------------------------||o---------------------|---------o||
|------------------------------||----------------------|----------||


 Guitar Solo
  Gtr III
        PM--------------------------------------------------------------------
  Q     E     S S S S E   S  E.        a  S E.  a  E    S S S E   S  Q
|----------------------------------|-----------------------------------------|
|----------------------------------|-----------------------------------------|
|----------------------------------|-----------------------------------------|
|----------------------------------|-----------------------------------------|
|-------8b9-----8---6-----8s10-----|-(10)p8----10s=8p===6-8---8---8s10-------|
|---------------------8------------|-----------------------------------------|
|
| Gtr I
| S E.  s   S S s E   s S S  S S S        S E.     s  S S s E   s S  S S S S
|----------------------------------|-----------------------------------------|
|-3h4--(4)------4-----4------4p3---|------3h4-----(4)-----4-----4------4p3---|
|-3----(3)------3-----3------3-----|------3-------(3)-----3-----3------3-----|
|-3h5--(5)------5-----5------5p3---|------3h5-----(5)-----5-----5------5p3---|
|--------------------------------3-|---------------------------------------3-|
|----------------------------------|-----------------------------------------|


 -----------|
  S S   S S  E.     S S S  a E    S  S  S   S
|-----------------------------------------------|
|-----------------------------------------------|
|-----------------------------------------------|
|-8----10-----------8---8-----------------------|
|-----------10------------10s8---[6]---[8]-[8]--|
|-----------------------------------------------|
|
| S E.       s  S S s E      s S  S  S  S   S
|-----------------------------------------------|
|-3h4-------(4)-----4--------4-------4p=3-------|
|-3---------(3)-----3--------3-------3----------|
|-3h5-------(5)-----5--------5-------5p=3-------|
|-------------------------------------------3---|
|-----------------------------------------------|


     ~~~
  S  E.  S  S  S  S S S    +S   a     +S  +S  S E
|-------------------------------------------------|
|-------------------------------------------------|
|-------------------------------------------------|
|-------------------------------------------------|
|---[8]-[6]---[8]-----8b9==(8)r(8)b9==(8)r(8)p6---|
|-----------------8-------------------------------|
|
| S  E.  s  S  S  s E       s          S   S  s E
|-------------------------------------------------|
|-3h=4--(4)-------4---------4-----------------4---|
|-3-----(3)-------3---------3-----------------3---|
|-3h=5--(5)-------5---------5-----------------5---|
|-------------------------------------------------|
|-------------------------------------------------|


      PM     PM|         ~~      PM---------|     ~~            PM
  Q   S  S S S S S S S S E.      S S  E S S S S S E.    a   E   S S
|------------------------------|-------------------------------------|
|------------------------------|-------------------------------------|
|------------------------------|--------------------------------8----|
|--------------------6---8-----|-6h8--------6-8---8----(8)s10--------|
|--------------6-8-------------|--------6h8--------------------------|
|----(8)-----8-----------------|-------------------------------------|
|
| q   s  S S s Q       S S S S   S E.   Q       s S  S      s Q
|------------------------------|-------------------------------------|
|-3---3------3-----------3p1---|-1-3------------3-----------3--------|
|-3---3------3-----------3-1---|-1-3------------3-----------3--------|
|-3---3------3-----------3-1---|-1-3------------3-----------3--------|
|----------------------------1-|-------------------------------------|
|------------------------------|-------------------------------------|


                        ~~~~    ~~                                ~~~~   PM|
       |3|
  E    E S  S  S S  S  +E.   S  Q         E    E  a E    S S   S  E.     S E S
|---------------------------------------|--------------------------------------|
|---------------------------------------|--------------------------------------|
|---------------------------------------|--------------------------------------|
|------x-------8---10-(10)--------------|------8-------------------------------|
|--------8-10----------------8h10-------|--------10s8p===6-8b9---[8]p====6-----|
|---------------------------------------|----------------------------------8---|
|
| S E.      s  S S  s   E  s S  S S S S   S E.      S E.       s  S  S s Q
|---------------------------------------|--------------------------------------|
|-3h4------(4)------4------4------4p3---|-3h4-------4----------4-------4-------|
|-3--------(3)------3------3------3-----|-3---------3----------3-------3-------|
|-3h5------(5)------5------5------5p3---|-3h5-------5----------5-------5-------|
|-------------------------------------3-|--------------------------------------|
|---------------------------------------|--------------------------------------|


                  PM                        ~~
  E    S    +S  S S  S S +S     +S  +S  S S E.
|---------------------------------------------------|
|------5b6==(5)-5------5-(5)b6==(5)r(5)-3---3-------|
|------5b6==(5)-5-3----5-(5)b7==(5)r(5)---5---------|
|---------------------------------------------------|
|---------------------------------------------------|
|---------------------------------------------------|
|
| S E.          S E.      s      S   S  s S s  E
|---------------------------------------------------|
|-5h6-----------6---------6-------------6---6-------|
|-5-------------5---------5-------------5---5-------|
|-5h7-----------7---------7-------------7---7-------|
|---------------------------------------------------|
|---------------------------------------------------|


                                          ~~
  S E    +S  S S S S +S     +S  +S  S S S E
|--------------------------------------------||
|---5b6==(5)-5-3---5-(5)b6==(5)r(5)-3---x----||
|---5b6==(5)-5-3---5-(5)b7==(5)r(5)-3---x----||
|-0---------------------------------------x\-||
|-----------------------------------------x\-||
|-----------------------------------------x\-||
|
| Q          Q        S      S   S  S Q
|--------------------------------------------||
|-7----------7--------7-------------x--------||
|-7----------7--------7-------------x--------||
|-7----------7--------7-------------x--------||
|--------------------------------------------||
|--------------------------------------------||


  W                              W
|------------------------------|-------------------------------|
|------------------------------|-------------------------------|
|------------------------------|-------------------------------|
|------------------------------|-------------------------------|
|------------------------------|-------------------------------|
|------------------------------|-------------------------------|
|
| PM--------------|          PM------------------|          PM
| S S S S S S S S S S S S E. S   S S S S S S S S S S S S E. S
|------------------------------|-------------------------------|
|------------------------------|-------------------------------|
|-----------------0---0---0----|-----------------0---0---0-----|
|-0-0---0---0----------------0-|-0-0---0---0----------------0--|
|-----------------1---3---1----|-----------------1---3---1-----|
|-3-3---1---3---3--------------|-3-3---1---3---3---------------|


                                                        D.C. al Coda
  Gtr I
  PM--------------|          PM------------|
  S S S S S S S S S S S S E. S   S S S S S E  a     +S  S S S S S S E
|------------------------------|--------------------------------------||
|------------------------------|--------------------------------5---5-||
|-----------------0---0---0----|------------------------5-5-----5-5-5-||
|-0-0---0---0----------------0-|-0-0---0---0--------------------5---5-||
|-----------------1---3---1----|----------------------------3-3-------||
|-3-3---1---3---3--------------|-3-3---1---3-(3)b5==(3)---------------||


 Outro Solo
  &
  Gtr III
  E   S S  Q      E.  S  S E    +S    E    S   S  S S E   +E    S S s E   S
|-----------------------------------|---------------------------------------|
|-----x-x-15\-----------------------|-----------------3---(3)-------3-3-----|
|------------------------3-5b7==(5)-|-----------------3---(3)---x-x-3-3-----|
|--------------------(5)------------|-----(x)-(x)-x-x-3---(3)---------------|
|-----------------------------------|---------------------------------------|
|-----------------------------------|---------------------------------------|
|
| Gtr I
| PM-------------------------------------------------------------------------
| S S E    E  S S H                   S S  E      E   S S  S  S S S S S S S
|-----------------------------------|---------------------------------------|
|-----------------------------------|---------------------------------------|
|-----------------------------------|---------------------------------------|
|-----------------------------------|---------------------------------------|
|-----------------------------------|----------------------1--------1-------|
|-3-3---------1-3-------------------|-3-3-------------1-3-----3-1-3---3-1-0-|


  S S S S  Q       S   S  S S  S  S  S   S
|-------------------------3------------------|
|-----x-x-15\-----(x)-(x)-6---(x)------------|
|-x-x-------------------------------(3)------|
|---------------------------------------(5)--|
|--------------------------------------------|
|--------------------------------------------|
|
|-----------------|
| S S E    E  S S  H
|--------------------------------------------|
|--------------------------------------------|
|--------------------------------------------|
|--------------------------------------------|
|--------------------------------------------|
|-1-3---------1-3----------------------------|


  S S S S S S E   +S     +S  +E    S S S S   S S S S  Q      S S S    +S  E E
|------------------------------------------|-----x-x-15\------------------3-6b8==|
|---------3---5---(5)b6==(5)r(5)---5-------|-----x-x-15\-------3-6b7==(6)--------|
|---------3---5---(5)b6==(5)r(5)---5p3-----|-x-x---------------------------------|
|---5-5-5------------------------------5-3-|-------------------------------------|
|------------------------------------------|-------------------------------------|
|------------------------------------------|-------------------------------------|
|
| PM------------------------------------------------------------------------------
| S S E   E   S S  S      S   S  S S S S S   S S E    E  S S H
|------------------------------------------|-------------------------------------|
|------------------------------------------|-------------------------------------|
|------------------------------------------|-------------------------------------|
|------------------------------------------|-------------------------------------|
|------------------1---------------1-------|-------------------------------------|
|-1-3---------1-3---------3---1--3---3-1-0-|-1-3---------1-3---------------------|


                                     PM|
  +S  E.   S   +S  S S S T T E   S S S S
|-(6)------3---------3---3------------------|
|----------6b8-(6)---------3-----5-3--------|
|----------------------------3---5-3--------|
|------------------------------------5-3----|
|-------------------------------------------|
|-------------------------------------------|
|
|--------------------------------------|
|  S  S  E E       S S S S   S S S S S S
|-------------------------------------------|
|-------------------------------------------|
|-------------------------------------------|
|-------------------------------------------|
|----------------------1---------1----------|
|--1--3------------1-3---3---1-3---3-1-0----|


                    PM---------------------------------------------
  S S S S S S S S S S S S S S S S   E   S S E S S E   S S E   S S
|-------------5-------------------|-------------------------------|
|-----3-x-------------------------|-------------------------------|
|-----3-x-3-x-5-x-----------------|-------------------------------|
|-x-x-----3-x-----x-5---------x-x-|-----x-x---x-x-----5-x-----x-x-|
|-----------------------------x-x-|-------------------------------|
|-----------------------2-x---x-x-|-------------------------------|
|
| PM---------------------------------------------------------------
| S S E   E   S S H                 S S E   E S S S S S S S S S S
|---------------------------------|-------------------------------|
|---------------------------------|-------------------------------|
|---------------------------------|-------------------------------|
|---------------------------------|-------------------------------|
|---------------------------------|---------------1-------1-------|
|-1-3---------1-3-----------------|-1-3-------1-3---3-1-3---3-1-0-|


 -------------------------------------|
  E   S S S S S    +S  +E     +E  E S S
|---------------------------------------|
|---------3-3-5b6==(5)r(5)b6==(5)-------|
|---------3-3-5b6==(5)r(5)b7==(5)-------|
|-----5-x---------------------------5-x-|
|---------------------------------------|
|---------------------------------------|
|
|----------------------|
| S S E   E   S     S   H
|---------------------------------------|
|---------------------------------------|
|---------------------------------------|
|---------------------------------------|
|---------------------------------------|
|-1-3---------1-----3-------------------|


      PM------------------|             PM------------------------|
  E   S S E S S Q       S S E         S S S S S  S  S S E S S E S S
|-----------------------------------|-------------------------------|
|---------------------------5b5.5---|-------------------------------|
|---------------------------5b5.5---|---------------------------3-x-|
|-----5-x---x-x---------0-0---------|---x-5-x---(x)-5-x---5-x-------|
|-----------------------------------|-------------------------------|
|-----------------------------------|-------------------------------|
|
| PM-----------------------------------------------------------------
| S S E   E S S S S S S S S S     S   S S E   E     S S H
|-----------------------------------|-------------------------------|
|-----------------------------------|-------------------------------|
|-----------------------------------|-------------------------------|
|-----------------------------------|-------------------------------|
|---------------1-------1-----------|-------------------------------|
|-1-3-------1-3---3-1-3---3-1-----0-|-1-3-----------1-3-------------|


  E      +E  Q     a a a    +E    E    S   S   S  S
|-----------------------------------------------------|
|-----------------------------------------------------|
|-5b7====(5)-----------5b7==(5)---5---(3)-------------|
|--------------------5--------------------(3)-(3)-----|
|------------------5----------------------------------|
|-----------------------------------------------------|
|
|-------------------------------------------------|
| S    S  E  E S S           S  S S S  S   S   S  S
|-----------------------------------------------------|
|-----------------------------------------------------|
|-----------------------------------------------------|
|-----------------------------------------------------|
|----------------------------1---------1--------------|
|-1----3-------1-3--------------3-1-3------3---1--0---|


                    PM
  S S S S  Q      E S S S     E.
|-----------------------------3--|
|-x-x-x-x-15\-------x---6b6.5-3--|
|--------------------------------|
|--------------------------------|
|--------------------------------|
|--------------------------------|
|
| PM------------------------------
| S S E    E  S S H
|--------------------------------|
|--------------------------------|
|--------------------------------|
|--------------------------------|
|--------------------------------|
|-1-3---------1-3----------------|


             PM----------------|                        PM
  E    S S E E   S S S S S S S S   E   S S E    +S  S E E S S S S
|--------------------------------|---------------------------------|
|-----15Sx-----------------------|---------------------------------|
|----------------3-------3-------|-----5-x-5b7==(5)-3---3-5-3------|
|----------------3-5-3h5-3-5-3h5-|----------------------0-----5p3--|
|------------5-----5-3h5---5-3h5-|---------------------------------|
|--------------------------------|---------------------------------|
|
|-----------------------------------------------------|
| S S  E   E S S S S S S S S S S   S S E   E     S  S H
|--------------------------------|---------------------------------|
|--------------------------------|---------------------------------|
|--------------------------------|---------------------------------|
|--------------------------------|---------------------------------|
|----------------1-------1-------|---------------------------------|
|-1-3--------1-3---3-1-3---3-1-0-|-1-3-----------1--3--------------|


                                                               PM      PM|
  E   S S S S E   E   E   E     E     E     s S    +S  S E   E S S S   S S S
|-------------3-------3---3-----3---|-3-----3----------------3-----3-----3---|
|-------------6-------6---6b8-------|-6b8-----6b8==(6)p3-6---6-6---6b8-3-3---|
|---------3-x-----------------------|----------------------------------------|
|-----5-x---------------------------|----------------------------------------|
|-----------------------------------|----------------------------------------|
|-----------------------------------|----------------------------------------|
|
| PM--------------------------------------------------------------------------
| S S E   E   S S S S S S S   S S S   S   S E       E    S S H
|-----------------------------------|----------------------------------------|
|-----------------------------------|----------------------------------------|
|-----------------------------------|----------------------------------------|
|-----------------------------------|----------------------------------------|
|-----------------1-------1---------|----------------------------------------|
|-1-3---------1-3---3-1-3-----3-1-0-|-1---3--------------1-3-----------------|


          PM                       PM----|
  S S S S S S S    +S  +E    +s  S S S S  S
|-------------5b6==(5)-(5)r==(5)--------------|
|-x-x-x-x-3---5b6==(5)-(5)r==(5)--------------|
|-x-x-x-x-3---5b6==(5)-(5)r==(5)--------------|
|----------------------------------5----------|
|------------------------------------5---(5)--|
|---------------------------------------------|
|
|----------------------------------------|
| S S E   E   S     S   S  S  S  S S S S  S
|---------------------------------------------|
|---------------------------------------------|
|---------------------------------------------|
|---------------------------------------------|
|-----------------------1----------1----------|
|-1-3---------1-----3------3--1--3---3-1--0---|


  PM----|                                            PM------|       PM------|
  S S S S S   E.     S   S E S   S  S   S    E   S S S S  S   S  S S S S S S S  S
|------------------------------------------|---------------------------------------|
|-----5-5----------------------------------|---------------------------------------|
|-x-x-5-5-5b7-3------5b7-3---5b7-3---------|---------------------------------------|
|-x-x------------------------------(5)-(3)-|-----5p3---3---------5p3---------3-(5)-|
|------------------------------------------|---------5---(5)-(3)-----5-5-3h5-------|
|------------------------------------------|---------------------------------------|
|
| PM--------------------------------------------------------------------------------
| S S E   E      S S H                       S S E   E    S   S  S S S S S S S  S
|------------------------------------------|---------------------------------------|
|------------------------------------------|---------------------------------------|
|------------------------------------------|---------------------------------------|
|------------------------------------------|---------------------------------------|
|------------------------------------------|---------------------1-------1---------|
|-1-3------------1-3-----------------------|-1-3----------1---3----3-1-3---3-1--0--|


  S S S S S S S    +S  +S     +S  +S  S S S S  S
|--------------------------------------------------|
|---------3---5b6==(5)r(5)b6==(5)r(5)p3------------|
|---------3---5b7==(5)r(5)b7==(5)r(5)p3------------|
|---5-5-x-------------------------------5-3h5p(3)--|
|--------------------------------------------------|
|--------------------------------------------------|
|
|----------------------|
| S S E   E   S     S   H
|--------------------------------------------------|
|--------------------------------------------------|
|--------------------------------------------------|
|--------------------------------------------------|
|--------------------------------------------------|
|-1-3---------1-----3------------------------------|


      PM|           PM|                                 PM----|
  E   S S E S S E   S S E    S   S      E  E    E  E  E S S S S E
|-----------3-3-----3-3-------------|---------------------------------|
|-----------3-3-------------(x)-(x)-|-/15-----/16-----------4---------|
|-----------------------------------|-/15-15\-/16-16\---4-4-5-x-5b7===|
|-----5-x---------------------------|-------------------5-5-----------|
|-----------------------------------|---------------------------------|
|-----------------------------------|---------------------------------|
|
| PM-------------------------------------------------------------------
| S S E   E S S S S S S S S  S   S      S  S    E     E S S H
|-----------------------------------|---------------------------------|
|-----------------------------------|---------------------------------|
|-----------------------------------|---------------------------------|
|-----------------------------------|---------------------------------|
|---------------1-------1-----------|---------------------------------|
|-1-3-------1-3---3-1-3---3--1---0--|---1--3------------1-3-----------|


  +E.     +S  S S E   E   E   e   E
|-------------3---3---6-------8---------|
|---------------------------------8-----|
|-(5)-----(5)---------------------------|
|---------------------------------------|
|---------------------------------------|
|---------------------------------------|
|
|-----------------------------------|
|  S  S E     E   S S S S S S S S S S
|---------------------------------------|
|---------------------------------------|
|---------------------------------------|
|---------------------------------------|
|---------------------1-------1---------|
|--1--3-----------1-3---3-1-3---3-1-0---|


                      PM|     PM|
  S S S  S  e S S S S S S S S S S   S S S S S S  E     E   E E  E
|---3-------3-------------5-5-----|-----------------------15---16--|
|---3h5p(3)-6-x-3-3-x-----5-5-----|-------------15s==(10)-15---16\-|
|-------------x-3-3-x-4-4-5-5-----|-x-x-x-x-x-x--------------------|
|---------------------5-5-----5-5-|--------------------------------|
|---------------------------------|--------------------------------|
|---------------------------------|--------------------------------|
|
| PM----------------------------------------------------------------
| S S E     E S S H                 S S E   E    S S   H
|---------------------------------|--------------------------------|
|---------------------------------|--------------------------------|
|---------------------------------|--------------------------------|
|---------------------------------|--------------------------------|
|---------------------------------|--------------------------------|
|-1-3---------1-3-----------------|-1-3----------1-3---------------|


      PM|         PM------------|
  E   S S E S  S  S S S S S S S S
|-----------------------------------|
|-----3-3---5-(5)-3-3---------------|
|-----3-3---5-(5)-3-3---x-x-x-------|
|---------------------5-x-x-x-5-5---|
|---------0-------------------------|
|-----------------------------------|
|
|-----------------|
| S S E   E S  S  H
|-----------------------------------|
|-----------------------------------|
|-----------------------------------|
|-----------------------------------|
|-----------------------------------|
|-1-3-------1--3--------------------|


                                                              S
      PM----------------|         PM------------|
  E   S S S S E   S S E E E   E   S S S S S S S S S S S S S S
|---------------------------|---------------------------------|
|---------------------------|---------------------3-------5-3-|
|-------------------------5-|-----3-3-------------3-------5-3-|
|-----5-5-5-3-3---5-5-5-3-5-|-------------3-----3-------x-----|
|-----5-5-5-3-3---3-3-3-3---|-----5-5-----3h5-5---------------|
|---------5-3-3-------------|---------3-3---------------------|
|
| PM-----------------------------------------------------------
| S S E   E   S S H           S S E   E   S S H
|---------------------------|---------------------------------|
|---------------------------|---------------------------------|
|---------------------------|---------------------------------|
|---------------------------|---------------------------------|
|---------------------------|---------------------------------|
|-1-3---------1-3-----------|-1-3---------1-3-----------------|


 lower Q=88
  E   S S E S S S S S S E S S
|------------------------------|
|-------------------3-----5-3--|
|-------------------3-----5----|
|---------------x-x------------|
|-----5-5-5-5-5----------------|
|------------------------------|
|
|---------------|
| S S E   E S S H
|------------------------------|
|------------------------------|
|------------------------------|
|------------------------------|
|------------------------------|
|-1-3-------1-3----------------|


      PM------------|
  +S  S S S E S S S S S S S S S S
|---------------------------------|
|-(3)-----------------3-------5-3-|
|---------------------3-----x-5-3-|
|-----------------x-x-------------|
|-----5-5-5-5-5-5-----------------|
|---------------------------------|
|
|  PM------------------------------
|  S  S E   E S S H
|---------------------------------|
|---------------------------------|
|---------------------------------|
|---------------------------------|
|---------------------------------|
|--1--3-------1-3-----------------|


        PM--------------------|       PM----------|
  +E    S S S S E   S S S S S S S S   E S S a E E E E Q
|-----------------------------------|--------------------*|
|-(3)-------------------3-------5-3-|--------------------*|
|-(3)---3-3-------------3-----x-5-3-|---3----------------*|
|-------------------x-x-3-----------|-5-3----------------*|
|-------5-5-5-5-5-------------------|-------4s3-1--------*|
|-----------------------------------|-------------3------*|
|
|-------------------|
|  S  S E   E   S S H                 W
|-----------------------------------|--------------------*|
|-----------------------------------|--------------------*|
|-----------------------------------|--------------------*|
|-----------------------------------|--------------------*|
|-----------------------------------|--------------------*|
|--1--3---------1-3-----------------|--------------------*|



Duration Legend
---------------
W - whole; H - half; Q - quarter; E - 8th; S - 16th; T - 32nd; X - 64th; a - acciaccatura
+ - note tied to previous; . - note dotted; .. - note double dotted
Uncapitalized letters represent notes that are staccato (1/2 duration)
Irregular groupings are notated above the duration line
Duration letters will always appear directly above the note/fret number it represents the
duration for.  Duration letters with no fret number below them represent rests.  Multi-
bar rests are notated in the form Wxn, where n is the number of bars to rest for.  Low
melody durations appear below the staff

Tablature Legend
----------------
 h   - hammer-on
 p   - pull-off
 b   - bend
 pb  - pre-bend
 r   - bend release (if no number after the r, then release immediately)
 /\  - slide into or out of (from/to "nowhere")
 s   - legato slide
 S   - shift slide
 - natural harmonic
[n]  - artificial harmonic
n(n) - tapped harmonic
 ~   - vibrato
 tr  - trill
 T   - tap
 TP  - trem. picking
 PM  - palm muting
\n/  - tremolo bar dip; n = amount to dip
 \n  - tremolo bar down
 n/  - tremolo bar up
/n\  - tremolo bar inverted dip
 =   - hold bend; also acts as connecting device for hammers/pulls
 <> - volume swell (louder/softer)
 x   - on rhythm slash represents muted slash
 o   - on rhythm slash represents single note slash

Misc Legend
-----------
 |  - bar
||  - double bar
||o - repeat start
o|| - repeat end
*|  - double bar (ending)
 :  - bar (freetime)
 $  - Segno
 &  - Coda
Tempo markers -  = BPM(8/16=s8/s16), where s8 = swing 8ths, s16 = swing 16ths

comments
We did not receive enough feedback on this tab! Please rate:
print report bad tab
1 2 3 4 5
1 comment total.
-1 reply
guitargeekgreg wrote on December 2 2013, 11:15 pm

I'm not going to comment on the whole tab, but I will say that it's much closer than Ver 1. Billy definitely is NOT playing power chords, and you've got the open D and G strings right.

To my ear Billy is picking the bottom notes while fingering the open strings.

Good job picking that out and not just tabbing out the power chords. I wish more people with good ears would rate these tabs so people wouldn't get the wrong impression.

I want to post or [tab]
guest
You may want to rate the tab now too:
select rating
Please do not post tabs as comments. Select "correction" instead!