Oops, an error
Loading. Please wait.

Concrete And Steel Tab

ver1
ver1

Whole song

Interactive

More versions @911Tabs.com
1,987 views 3 this week
no commentswrite comment
1 2 3 4 5
please rate
Autoscroll
+/-
esc
set tempo
stop
Contributor
Hey! There's an official Ultimate Guitar app which is ideal
for learning songs when you're away from computer. Get the app
WARNING: You are trying to view
                                    content from Ultimate-Guitar.com
                                    in an unauthorized application,
                                    which is prohibited.

                                    Please use an official Ultimate
                                    Guitar Tabs application for iPhone,
                                    iPad or Android to access legitimate
                                    chords, guitar, bass, and drum tabs
                                    from Ultimate-Guitar.com database.

                                    Type "ultimate guitar tabs" in Apple
                                    App Store's or Android Market's
                                    search to find the application.
#----------------------------------PLEASE NOTE---------------------------------#
#This file is the author's own work and represents their interpretation of the #
#song. You may only use this file for private study, scholarship, or research. #
#------------------------------------------------------------------------------#

CONCRETE AND STEEL
As recorded by ZZ Top


Transcribed by an unregistered user



Gtr I (E A D G B E) - 'Rhythm'
Gtr II (E A D G B E) - 'Lead'

 Intro
  Q=127
 4/4
  Gtr I
  H    Q  E E   E E E   E E E +Q     E E E E +Q.      E   E E E E E E +Q
|-------------|--------------------|--------------------|-------------------|
|-------------|-----8-----8--------|--------------------|-------------------|
|-----------7-|-9---7-----7-9-(9)--|-7-7---9-(9)------7-|-9-----------------|
|-----------7-|-9-----------9-(9)--|-7-7---9-(9)------7-|-9---5---5---------|
|-------------|--------------------|--------------------|-----5---5-7-(7)---|
|-------------|--------------------|--------------------|-----------7-(7)---|
|
| Gtr II
| W             Q   E   E H          H        Q    E  E   W
|-------------|--------------------|--------------12\---|-------------------|
|-------------|--------------------|--------------------|-------------------|
|-------------|-----7b9---9--------|--------------------|-------------------|
|-------------|--------------------|--------------------|-------------------|
|-------------|--------------------|--------------------|-------------------|
|-------------|--------------------|--------------------|-------------------|


  E E E E +Q.       E    E  E E E E E +Q
|---------------------|--------------------|
|---------------------|-------8---8--------|
|-------------------7-|--9----7---7-9-(9)--|
|-------------------7-|--9----------9-(9)--|
|-5-5---7-(7)---------|--------------------|
|-5-5---7-(7)---------|--------------------|
|
|             |3|
| H        E  E S E E   +Q    Q   H
|---------------------|--------------------|
|---------------------|--------------------|
|---------------------|--------------------|
|---------------------|--------------------|
|-------------5---5-7-|-(7)----------------|
|---------------------|--------------------|


  E E E E +Q.     E   E E E Q  E +Q
|-------------------|------------------|
|-------------------|------------------|
|-7-7---9-(9)-----7-|-9----------------|
|-7-7---9-(9)-----7-|-9---5-5----------|
|-------------------|-----5-5--7-(7)---|
|-------------------|----------7-(7)---|
|
| H        Q   E  E   W
|-------------------|------------------|
|--------------5\---|------------------|
|-------------------|------------------|
|-------------------|------------------|
|-------------------|------------------|
|--------------0----|------------------|


                     Verse 1
  E E E E +H          E E E E E E +Q     E E E E +H          E E Q  H
|------------------||------------------|-------------------|-------------|
|------------------||-----8---8--------|-------------------|-------------|
|------------------||-9---7---7-9-(9)--|-7-7---9-(9)-------|---7----7----|
|------------------||-9---------9-(9)--|-7-7---9-(9)-------|---7----7----|
|-5-5---7-(7)------||------------------|-------------------|-------------|
|-5-5---7-(7)------||------------------|-------------------|-------------|
|
| E E E E  E  E Q     W                  H        Q   E  E   W
|------------------||------------------|-------------------|-------------|
|------------------||------------------|--------------5\---|-------------|
|------------------||------------------|-------------------|-------------|
|-------5----------||------------------|-------------------|-------------|
|-----5----7--5-7--||------------------|-------------------|-------------|
|---3--------------||------------------|-------------------|-------------|


  E E Q  H            E  E E E E E +Q     E E E E +H       E E Q  H
|------------------|--------------------|----------------|-------------|
|------------------|-------8---8--------|----------------|-------------|
|---5----5---------|--9----7---7-9-(9)--|-7-7---9-(9)----|---7----7----|
|---5----5---------|--9----------9-(9)--|-7-7---9-(9)----|---7----7----|
|------------------|--------------------|----------------|-------------|
|------------------|--------------------|----------------|-------------|
|
|          |3|
| H      E E S E E   +Q    Q   H          W                W
|------------------|--------------------|----------------|-------------|
|------------------|--------------------|----------------|-------------|
|------------------|--------------------|----------------|-------------|
|------------------|--------------------|----------------|-------------|
|----------5---5-7-|-(7)----------------|----------------|-------------|
|------------------|--------------------|----------------|-------------|


                                  Chorus 1
  E E Q  H      E E E E E E E E    E E Q    H        E E Q  H
|-------------|-----------------||-----------------|-------------|
|-------------|-----------------||-----------------|--------8----|
|---5----5----|-----------------||---9------9------|---7----7----|
|---5----5----|-2-2-0-0---------||---9------9------|---7----7----|
|-------------|---------2-2-0-0-||-----------------|-------------|
|-------------|-----------------||-----------------|-------------|
|
|                             ~~~~~~~~~  ~
| W             H       Q   E E    E E E E +Q   Q    W
|-------------|-----------------||-----------------|-------------|
|-------------|-----------------||-----------------|-------------|
|-------------|-----------------||-----------------|-------------|
|-------------|-----------------||-----------------|-------------|
|-------------|-----------------||-5-7---7-(7)-----|-------------|
|-------------|---------------7-||-----------------|-------------|


  E E Q   H      E E E E E E E E   E E Q    H        E E Q  H
|--------------|-----------------|-----------------|-------------|
|--------10----|-----------------|-----------------|--------8----|
|---9-----9----|-----------------|---9------9------|---7----7----|
|---9-----9----|-2-2-0-0---------|---9------9------|---7----7----|
|--------------|---------2-2-0-0-|-----------------|-------------|
|--------------|-----------------|-----------------|-------------|
|
|                              ~~~~~~~~  ~
| W              H       Q   E E   E E E E +Q   Q    W
|--------------|-----------------|-----------------|-------------|
|--------------|-----------------|---5---5-(5)-----|-------------|
|--------------|-----------------|-7---------------|-------------|
|--------------|-----------------|-----------------|-------------|
|--------------|-----------------|-----------------|-------------|
|--------------|---------------7-|-----------------|-------------|


                                Verse 2
  E E Q   H                      E E E E E Q.     E E E E +H       E E Q  H
|-----------------------------||----------------|----------------|-------------|
|--------10-------------------||-----8---8------|----------------|-------------|
|---9-----9-------------------||-9---7---7-9----|-7-7---9-(9)----|---7----7----|
|---9-----9-------------------||-9---------9----|-7-7---9-(9)----|---7----7----|
|-----------------------------||----------------|----------------|-------------|
|-----------------------------||----------------|----------------|-------------|
|
| H       E  S  S  S  S  S  S    W                W                W
|-----------------------------||----------------|----------------|-------------|
|-----------------(3)---(5)---||----------------|----------------|-------------|
|-----------(5)---------------||----------------|----------------|-------------|
|-----------------------------||----------------|----------------|-------------|
|-----------------------------||----------------|----------------|-------------|
|-----------------------------||----------------|----------------|-------------|


  E E Q  H            E  E E E E Q.     E E E E +H          E E Q  H
|------------------|------------------|-------------------|-------------|
|------------------|-------8---8------|-------------------|-------------|
|---5----5---------|--9----7---7-9----|-7-7---9-(9)-------|---7----7----|
|---5----5---------|--9----------9----|-7-7---9-(9)-------|---7----7----|
|------------------|------------------|-------------------|-------------|
|------------------|------------------|-------------------|-------------|
|
|                ~~~~~~~~
|          |3|
| H      E E S E E   +Q    Q   H        H        Q   E  E   W
|------------------|------------------|-------------------|-------------|
|------------------|------------------|--------------5\---|-------------|
|------------------|------------------|-------------------|-------------|
|------------------|------------------|-------------------|-------------|
|----------5---5s7-|-(7)--------------|-------------------|-------------|
|------------------|------------------|-------------------|-------------|


                                  Chorus 2
  E E Q  H      E E E E E E E E    E E Q    H         E E Q  H
|-------------|-----------------||------------------|-------------|
|-------------|-----------------||------------------|--------8----|
|---5----5----|-----------------||---9------9-------|---7----7----|
|---5----5----|-2-2-0-0---------||---9------9-------|---7----7----|
|-------------|---------2-2-0-0-||------------------|-------------|
|-------------|-----------------||------------------|-------------|
|
|                             ~~~~~~~~~  ~~~~~~
| W             H       Q   E E    E E E E +E  E Q    W
|-------------|-----------------||------------------|-------------|
|-------------|-----------------||------------------|-------------|
|-------------|-----------------||-7-9---9-(9)------|-------------|
|-------------|-----------------||-0----------------|-------------|
|-------------|-----------------||---7---7-(7)------|-------------|
|-------------|---------------7-||------------------|-------------|


  E E Q   H      E E E E E E E E   E E Q    H         E E Q  H
|--------------|-----------------|------------------|-------------|
|--------10----|-----------------|------------------|--------8----|
|---9-----9----|-----------------|---9------9-------|---7----7----|
|---9-----9----|-2-2-0-0---------|---9------9-------|---7----7----|
|--------------|---------2-2-0-0-|------------------|-------------|
|--------------|-----------------|------------------|-------------|
|
|                              ~~~~~~~~  ~~~~~~~
| W              H       Q   E E   E E E E +Q    Q    W
|--------------|-----------------|------------------|-------------|
|--------------|-----------------|---5---5-(5)\-----|-------------|
|--------------|-----------------|-7----------------|-------------|
|--------------|-----------------|------------------|-------------|
|--------------|-----------------|------------------|-------------|
|--------------|---------------7-|------------------|-------------|


                 Guitar Solo 1
                  Gtr II
  E E Q   H       E  E  +E  E E E E E   +E  E E E E E +E  E   E E Q  E E E E
|--------------||-2--5--(5)-5---------|---------------------|-----3----3-----|
|--------10----||---(5)-(5)---7-5-3---|---------------------|---5----5---5-3-|
|---9-----9----||-------------------4-|-(4)-4-2-------------|----------------|
|---9-----9----||---------------------|---------4-----------|----------------|
|--------------||---------------------|-----------5-5-(5)---|----------------|
|--------------||---------------------|-------------------7-|----------------|


  E E E E E Q  E   E S S +E  E E E E E
|----------------|---2s5-(5)-5---------|
|-0s3-5s3--------|-------------7-5-3---|
|----------------|-------------------4-|
|---------5-5----|---------------------|
|--------------7-|---------------------|
|----------------|---------------------|


  +E  E E E E E S  E.   E a Q  a E Q  E E
|---------------------|--------------------|
|---------------------|---3h5--5p3-5--5-3--|
|-(4)-4-2-------------|--------------------|
|---------4-----------|--------------------|
|-----------5-5-------|--------------------|
|-----------------/7\-|--------------------|


  E E E E  Q  E E   E E Q  Q  E E   E E E H    E   E E E E E E E E
|-----------------|---------------|--------------|-----------------|
|-0s3-5s3---------|---5----5--3s0-|-5-5---5----3-|-5-0-3-3---------|
|-----------------|---------------|--------------|---------4s2-----|
|---------/5------|---------------|--------------|-------------2-2-|
|-------------7---|---------------|--------------|-----------------|
|-----------------|---------------|--------------|-----------------|


                                                                        ~
  +E  E E E E E +E  E   +E  E Q  Q  E E   E E E Q  Q  E   E E E E E E E E
|---------------------|-----------------|-------3--0----|-----------------|
|---------------------|-----5----5--3s0-|-5-5------0--0-|-0-3-0-----------|
|-------------------4-|-(4)-------------|---------------|-------2-4-2-----|
|-(2)-2-0---0-0-(0)-2-|-(2)-------------|---------------|-------------2-2-|
|---------2-----------|-----------------|---------------|-----------------|
|---------------------|-----------------|---------------|-----------------|


                     Interlude
  Gtr I
   H        Q  E E    E E E E E Q.     E E E H       E   E E E E E E +Q
|------------------||----------------|-----------------|------------------|
|------------------||-----8---8------|-----------------|------------------|
|----------------7-||-9---7---7-9----|-7-7---9-------7-|-9----------------|
|----------------7-||-9---------9----|-7-7---9-------7-|-9---5---5--------|
|------------------||----------------|-----------------|-----5---5-7-(7)--|
|------------------||----------------|-----------------|-----------7-(7)--|
|
| Gtr II
|  ~~~
| +E  E E E Q  E E    W                H       Q  E  E   W
|------------------||----------------|-----------------|------------------|
|------------------||----------------|------------5\---|------------------|
|------------------||----------------|-----------------|------------------|
|-(2)-0------------||----------------|-----------------|------------------|
|-------2-0--------||----------------|-----------------|------------------|
|-----------3--0---||----------------|-----------------|------------------|


                              Verse 3
  E E E E +Q.            E      E  E E E E E +Q
|---------------------------||--------------------|
|---------------------------||-------8---8--------|
|---------------------------||--9----7---7-9-(9)--|
|---------------------------||--9----------9-(9)--|
|-5-5---7-(7)---------------||--------------------|
|-5-5---7-(7)---------------||--------------------|
|
|              |3-|
| H        E   E  S  E   E     +Q    Q   H
|---------------------------||--------------------|
|-------------(3)---(3)-(5)-||-(5)----------------|
|---------------------------||--------------------|
|---------------------------||--------------------|
|---------------------------||--------------------|
|---------------------------||--------------------|


  E E E E +H           E E Q  H
|--------------------|-------------|
|--------------------|-------------|
|-7-7---9-(9)--------|---7----7----|
|-7-7---9-(9)--------|---7----7----|
|--------------------|-------------|
|--------------------|-------------|
|
| H        Q    Q      W
|--------------------|-------------|
|--------------------|-------------|
|--------------(9)\--|-------------|
|--------------(9)\--|-------------|
|--------------------|-------------|
|--------------------|-------------|


  E E Q  H            E  E E E E E +Q     E E E E +H          E E Q  H
|------------------|--------------------|-------------------|-------------|
|------------------|-------8---8--------|-------------------|-------------|
|---5----5---------|--9----7---7-9-(9)--|-7-7---9-(9)-------|---7----7----|
|---5----5---------|--9----------9-(9)--|-7-7---9-(9)-------|---7----7----|
|------------------|--------------------|-------------------|-------------|
|------------------|--------------------|-------------------|-------------|
|
|                ~~~~~~~~
|          |3|
| H      E E S E E   +Q    Q   H          H        Q   E  E   W
|------------------|--------------------|-------------------|-------------|
|------------------|--------------------|--------------5\---|-------------|
|------------------|--------------------|-------------------|-------------|
|------------------|--------------------|-------------------|-------------|
|----------5---5s7-|-(7)----------------|-------------------|-------------|
|------------------|--------------------|-------------------|-------------|


                Chorus 3
  E E Q  H       E E E E E E E E   E E Q    H         E E Q  H
|-------------||-----------------|------------------|-------------|
|-------------||-----------------|------------------|--------8----|
|---5----5----||-----------------|---9------9-------|---7----7----|
|---5----5----||-2-2-0-0---------|---9------9-------|---7----7----|
|-------------||---------2-2-0-0-|------------------|-------------|
|-------------||-----------------|------------------|-------------|
|
|                              ~~~~~~~~  ~~~~~~
| W              H       Q   E E   E E E E +E  E Q    W
|-------------||-----------------|------------------|-------------|
|-------------||-----------------|------------------|-------------|
|-------------||-----------------|-7-9---9-(9)------|-------------|
|-------------||-----------------|-0----------------|-------------|
|-------------||-----------------|---7---7-(7)------|-------------|
|-------------||---------------7-|------------------|-------------|


  E E Q   H      E E E E E E E E   E E Q    H         E E Q  H
|--------------|-----------------|------------------|-------------|
|--------10----|-----------------|------------------|--------8----|
|---9-----9----|-----------------|---9------9-------|---7----7----|
|---9-----9----|-2-2-0-0---------|---9------9-------|---7----7----|
|--------------|---------2-2-0-0-|------------------|-------------|
|--------------|-----------------|------------------|-------------|
|
|                              ~~~~~~~~  ~~~~~~~
| W              H       Q   E E   E E E E +Q    Q    W
|--------------|-----------------|------------------|-------------|
|--------------|-----------------|---5---5-(5)\-----|-------------|
|--------------|-----------------|-7----------------|-------------|
|--------------|-----------------|------------------|-------------|
|--------------|-----------------|------------------|-------------|
|--------------|---------------7-|------------------|-------------|


                 Guitar Solo 2
                  Gtr II
                                                 ~
  E E Q   H       S S Q  E E E E E   +E  E E E E Q  E   E E E E E E E E
|--------------||-2-2s5--5-2-------|------------------|------------------|
|--------10----||------------5-3---|------------------|---------3---0s5--|
|---9-----9----||----------------4-|-(4)-4-2----------|---2-2s4---4------|
|---9-----9----||------------------|---------4--------|------------------|
|--------------||------------------|-----------5-5----|------------------|
|--------------||------------------|----------------7-|------------------|


                                  ~~~~~~~~
  E E E E Q  a E E   E Q  E E E E E   +E  E E E E E Q    E E E E Q  E E
|------------------|-2s5--5-2-------|------------------|-----------------|
|-5-3--------0h3---|----------5-3---|------------------|---3s5-3-5--3----|
|-----4s2-4--------|--------------4-|-(4)-4-2----------|--------------4--|
|------------------|----------------|---------4--------|-----------------|
|------------------|----------------|-----------5-5----|-----------------|
|------------------|----------------|---------------7--|-----------------|


  E E E E Q  E E   +E  E Q  E E Q    E E E Q  Q  E   E E E E H
|----------------|-----------------|---------------|--------------|
|-----3----------|-----------------|---------------|--------------|
|-2-4---4s2------|-----------------|---7---9--9----|--------------|
|------------5---|-----------------|-9-------------|--------------|
|--------------7-|-(7)-7------7----|---------------|---5s7---7----|
|----------------|-----7----7-7----|-------------7-|--------------|


  E E E Q  E Q    E E E E H      E E Q  E E Q    E E Q  E E Q
|---------------|--------------|---------------|---------------|
|---------------|--------------|---------------|---------------|
|---------------|--------------|---------------|---------------|
|---------------|--------------|---------------|---------------|
|-5-5---7--5----|-----5---7----|-7-7------7----|-5s7----5s7----|
|---------------|---7----------|-7-7----7-7----|---------------|


  E E E Q  Q.       E Q.   E Q.     E Q.   E E E E   E Q.   S S Q.
|-----------------|---------------|----------------|------------------|
|-----------------|-0s3----0s3----|-0s3------------|-0s3----0-0s3-----|
|-----------------|---------------|--------4s2-----|------------------|
|-----------------|---------------|------------2-0-|------------------|
|-5-5---7--5pb7---|---------------|----------------|------------------|
|----------5pb7---|---------------|----------------|------------------|


    ~~     ~         ~~       ~~
  E Q.   E E E E   E Q.   S S Q.     E Q.   E E E E   E Q.   E Q.
|----------------|-----------------|----------------|----------------|
|-0s3------------|-0s3----0-0s3----|-0s3------------|-0s3----0s3-----|
|--------4s2-----|-----------------|--------4s2-----|----------------|
|------------2-0-|-----------------|------------2s0-|----------------|
|----------------|-----------------|----------------|----------------|
|----------------|-----------------|----------------|----------------|


  E E E E E Q  E   E E Q  Q  E E   E E E E +E  E E E   E E E E Q  Q
|----------------|---------------|-------------------|------------3--|
|-0s3------------|---5----5--3---|-5-3-----------3---|---3s5---5-----|
|-----4-2--------|-------------4-|-----4-2-(2)-4---4-|---------------|
|---------0-0--2-|---------------|-------------------|---------------|
|----------------|---------------|-------------------|---------------|
|----------------|---------------|-------------------|---------------|


  Gtr I
  E E Q   H         E E Q   H        E E Q   H        W
|-----------------|----------------|----------------|-------------|
|-----------------|----------------|----------------|-------------|
|---9-----9-------|---9-----9------|---9-----9------|-------------|
|---9-----9-------|---9-----9------|---9-----9------|-------------|
|-----------------|----------------|----------------|-------------|
|-----------------|----------------|----------------|-------------|
|
| Gtr II
|                           ~
| E E E E E E E E   E E E E Q  E E   E E E E E Q.     E E Q  H
|---3-------------|----------------|----------------|-------------|
|-5---5s3---3s5s0-|---3s5---5--3-0-|-5-3-0----------|-------------|
|---------4-------|----------------|-------2-2-4----|-------------|
|-----------------|----------------|----------------|-------------|
|-----------------|----------------|----------------|---5----5----|
|-----------------|----------------|----------------|---5----5----|


  Gtr II
  E E E E E E E E   E E Q  H      E E E E E E E E   E E Q  Q  Q
|-----------------|-------------|-----------------|-----------3--|
|-----------------|-------------|-----------------|---5----5-----|
|-----------------|-------------|-----------------|--------------|
|-----------------|-------------|-----------------|--------------|
|---5---7-5-5-7---|---5----7----|-5---7---5-5-7---|--------------|
|---5---7-5-5-----|---5----7----|-5---7---5-5-----|--------------|


  Gtr I
  W               W                 W                 E     E  Q   H
|---------------|-----------------|-----------------|-------------------------|
|---------------|-----------------|-----------------|-------------------------|
|---------------|-----------------|-----------------|-------9------9----------|
|---------------|-----------------|-----------------|-------9------9----------|
|---------------|-----------------|-----------------|-------------------------|
|---------------|-----------------|-----------------|-------------------------|
|
| Gtr II
| E E Q  Q  Q     E E E E E E E E   E E Q    Q  E E   S  E.   +Q   E E +E  E
|---------------|---------------3-|---5-5b7--5--3---|----------------3-(3)-7--|
|---5----5------|-0---3-5---5-5---|-5-------------5-|---/5----(5)--5----------|
|-----------4\--|---2-------------|-----------------|-------------------------|
|---------------|-----------------|-----------------|-------------------------|
|---------------|-----------------|-----------------|-------------------------|
|---------------|-----------------|-----------------|-------------------------|


  E E Q   H
|------------------*|
|------------------*|
|---9-----9--------*|
|---9-----9--------*|
|------------------*|
|------------------*|
|
| E E E E E E Q
|---7--------------*|
|-----8------------*|
|-------9-7--------*|
|-----------9------*|
|-------------7----*|
|------------------*|



Duration Legend
---------------
W - whole; H - half; Q - quarter; E - 8th; S - 16th; T - 32nd; X - 64th; a - acciaccatura
+ - note tied to previous; . - note dotted; .. - note double dotted
Uncapitalized letters represent notes that are staccato (1/2 duration)
Irregular groupings are notated above the duration line
Duration letters will always appear directly above the note/fret number it represents the
duration for.  Duration letters with no fret number below them represent rests.  Multi-
bar rests are notated in the form Wxn, where n is the number of bars to rest for.  Low
melody durations appear below the staff

Tablature Legend
----------------
 h   - hammer-on
 p   - pull-off
 b   - bend
 pb  - pre-bend
 r   - bend release (if no number after the r, then release immediately)
 /\  - slide into or out of (from/to "nowhere")
 s   - legato slide
 S   - shift slide
<n> - natural harmonic
[n]  - artificial harmonic
n(n) - tapped harmonic
 ~   - vibrato
 tr  - trill
 T   - tap
 TP  - trem. picking
 PM  - palm muting
\n/  - tremolo bar dip; n = amount to dip
 \n  - tremolo bar down
 n/  - tremolo bar up
/n\  - tremolo bar inverted dip
 =   - hold bend; also acts as connecting device for hammers/pulls
 <> - volume swell (louder/softer)
 x   - on rhythm slash represents muted slash
 o   - on rhythm slash represents single note slash

Misc Legend
-----------
 |  - bar
||  - double bar
||o - repeat start
o|| - repeat end
*|  - double bar (ending)
 :  - bar (freetime)
 $  - Segno
 &  - Coda
Tempo markers - <E/E./Q/Q./H/H.> = BPM(8/16=s8/s16), where s8 = swing 8ths, s16 = swing 16ths

comments
We did not receive enough feedback on this tab! Please rate:
print report bad tab
1 2 3 4 5
I want to post or [tab]
guest
You may want to rate the tab now too:
select rating
Please do not post tabs as comments. Select "correction" instead!