Oops, an error
Loading. Please wait.

Doubleback Tab

ver1
ver1

Intro

Whole song

Interactive

More versions @911Tabs.com
8,925 views 18 this week
no commentswrite comment
1 2 3 4 5
excellent!
x 2
Autoscroll
+/-
esc
set tempo
stop
Hey! There's an official Ultimate Guitar app which is ideal
for learning songs when you're away from computer. Get the app
WARNING: You are trying to view
                                    content from Ultimate-Guitar.com
                                    in an unauthorized application,
                                    which is prohibited.

                                    Please use an official Ultimate
                                    Guitar Tabs application for iPhone,
                                    iPad or Android to access legitimate
                                    chords, guitar, bass, and drum tabs
                                    from Ultimate-Guitar.com database.

                                    Type "ultimate guitar tabs" in Apple
                                    App Store's or Android Market's
                                    search to find the application.
                                   DOUBLEBACK
                              As recorded by ZZ Top
                       (From the 2001 Album GREATEST HITS)

Words and Music by Billy Gibbons, Dusty Hill, and Frank Beard

Gtr I (E A D G B E) - 'Untitled'
Gtr II (E A D G B E) - 'Untitled'
Gtr III (E A D G B E) - 'Untitled'
Gtr IV (E A D G B E) - 'Untitled'

 Intro
  Moderately Fast Rock Q=124
            Eb5     F5  C5/G C5           F5/CBb5/FEb5
 4/4
  Gtr III
  W               W               +W
|---------------|---------------|----------------|
|---------------|---------------|----------------|
|---------------|-5-------------|-(5)------------|
|---------------|-5-------------|-(5)------------|
|---------------|-3-------------|-(3)------------|
|---------------|---------------|----------------|
|
| Gtrs I, II
| H    Q  E S S   E E E E Q  Q    +Q.   E E E Q
|---------------|---------------|----------------|
|-----------4-4-|-4s6-----------|----------------|
|-----------3-3-|-3s5---5----5--|-(5)---------3--|
|-----------1-1-|-1s3---5----5--|-(5)---5-3h5-3--|
|---------------|-----3------3--|-(3)---3-3------|
|---------------|---------------|----------------|


        C5/G C5           F5/CBb5/F
  W               +W
|---------------|------------------|
|---------------|------------------|
|-5-------------|-(5)--------------|
|-5-------------|-(5)--------------|
|-3-------------|-(3)--------------|
|---------------|------------------|
|
| E E E E Q  Q    +Q.   E E E Q
|---------------|------------------|
|-4s6-----------|------------------|
|-3s5---5----5--|-(5)---------3----|
|-1s3---5----5--|-(5)---5-3h5-3----|
|-----3------3--|-(3)---3-3--------|
|---------------|------------------|


  Eb5    F5     C5/G C5                          Bb5/FEb5
  Gtr IV
      ~~~~~~~~~~
   S  E.    +H        E     +E     E  E  Q   E E Q
|-------------------------------|-------------------|
|-11s13----(13)------16b17-(16)-|-------------------|
|-------------------------------|-------------------|
|-------------------------------|-------------------|
|-------------------------------|-------------------|
|-------------------------------|-----x-18s==3------|
|
| Gtrs I, II
|  E     E   E  E Q   Q           +Q.      E E E Q
|-------------------------------|-------------------|
|--4s====6----------------------|-------------------|
|--3s====5------5-----5---------|-(5)------------3--|
|--1s====3------5-----5---------|-(5)------5-3h5-3--|
|------------3--------3---------|-(3)------3-3------|
|-------------------------------|-------------------|


         F5   C5/G     C5                   F5/CBb5/F
      ~~~
   S  E.    e E  a  Q  Q         Q   Q    a Q   E.  +S
|-----------------------------|--------------------------||
|-11s13----11---12s10---------|--------------------------||
|---------------12s10--8b8.5--|--------------------------||
|-----------------------------|-10---8-------------------||
|-----------------------------|----------10s8---6b8-(6)--||
|-----------------------------|--------------------------||
|
|  E     E  E E     Q  Q        +Q.    E    E E Q
|-----------------------------|--------------------------||
|--4s====6--------------------|--------------------------||
|--3s====5----5--------5------|-(5)-------------3--------||
|--1s====3----5--------5------|-(5)----5----3h5-3--------||
|-----------3----------3------|-(3)----3----3------------||
|-----------------------------|--------------------------||


 Verse
  Eb5   C5/G C5             F5/CBb5/F
  ~~
  H.         Q       W
|---------------||-----------------|
|---------------||o----------------|
|---------------||-----------------|
|---------------||-----------------|
|---------------||o----------------|
|-8-------------||-----------------|
|
| E E E E Q  Q      +Q.   E E E Q
|---------------||-----------------|
|-4s6-----------||o----------------|
|-3s5---5----5--||--(5)---------3--|
|-1s3---5----5--||--(5)---5-3h5-3--|
|-----3------3--||o-(3)---3-3------|
|---------------||-----------------|


    F5  C5/G C5                     C5      Bb5/F
                                 ~~~~
  W              3x  Q    S     +E.    +H
|----------------||----------------------------|
|---------------o||------11b13-(11)---(11)-----|
|----------------||----------------------------|
|----------------||----------------------------|
|---------------o||----------------------------|
|----------------||----------------------------|
|
| E E E E Q  Q   3x +Q.             E   E E Q
|----------------||----------------------------|
|-4s6-----------o||----------------------------|
|-3s5---5----5---||-(5)---------------------3--|
|-1s3---5----5---||-(5)-------------5---3h5-3--|
|-----3------3--o||-(3)-------------3---3------|
|----------------||----------------------------|


 Chorus
  $
  C    Am/C       Eb5  Ab5/Eb     F5    Bb5/F        F5         Bb5/F
  Gtr IV
                                                          ~~~~~~
  W               W                W                  Q   H.
|---------------|---------------|------------------|-----------------------|
|---------------|---------------|------------------|-----11b13=============|
|---------------|---------------|------------------|-----------------------|
|---------------|---------------|------------------|-----------------------|
|---------------|---------------|------------------|-----------------------|
|---------------|---------------|------------------|-----------------------|
|
| Gtr II
| Q  E E +H       Q  E E +H        Q  E  E  +H        Q   E      E  +H
|---------------|---------------|------------------|-----------------------|
|-5----6-(6)----|-8----9-(9)----|-10----11-(11)----|-10---------11-(11)----|
|-5----5-(5)----|-8----8-(8)----|-10----10-(10)----|-10---------10-(10)----|
|-5----5-(5)----|-8----8-(8)----|-10----10-(10)----|-10---------10-(10)----|
|-3-------------|-6-------------|--8---------------|--8--------------------|
|---------------|---------------|------------------|-----------------------|
|
| Gtr I
| Q  E E +H       Q  E E +H        Q  E  E  +H        Q   E      E  +H
|---------------|---------------|------------------|-----------------------|
|---------------|---------------|------------------|-----------------------|
|---------------|---------------|------------------|-----------------------|
|-5----7-(7)----|-8----6-(6)----|-10-----8--(8)----|-10----------8--(8)----|
|-3----3-(3)----|-6----6-(6)----|--8-----8--(8)----|--8----------8--(8)----|
|---------------|---------------|------------------|-----------------------|


  C       F5/G       Eb   Ab5/Bb     F     Bb5/C        F          Bb5/C
    ~~~~                                                     ~~~~~~
   +W                W                W                  Q   H.
|------------------|---------------|------------------|-----13b15=============||
|-(11)-------------|---------------|------------------|-----------------------||
|------------------|---------------|------------------|-----------------------||
|------------------|---------------|------------------|-----------------------||
|------------------|---------------|------------------|-----------------------||
|------------------|---------------|------------------|-----------------------||
|
|   Q   E E +H       Q  E E +H        Q  E  E  +H        Q   E      E  +H
|------------------|---------------|------------------|-----------------------||
|---5-----6-(6)----|-8----9-(9)----|-10----11-(11)----|-10---------11-(11)----||
|---5-----5-(5)----|-8----8-(8)----|-10----10-(10)----|-10---------10-(10)----||
|---5-----5-(5)----|-8----8-(8)----|-10----10-(10)----|-10---------10-(10)----||
|---3--------------|-6-------------|--8---------------|--8--------------------||
|------------------|---------------|------------------|-----------------------||
|
|   Q   E E +H       Q  E E +H        Q  E  E  +H        Q   E      E  +H
|------------------|---------------|------------------|-----------------------||
|------------------|---------------|------------------|-----------------------||
|------------------|---------------|------------------|-----------------------||
|---5-----7-(7)----|-8----6-(6)----|-10-----8--(8)----|-10----------8--(8)----||
|---3-----3-(3)----|-6----6-(6)----|--8-----8--(8)----|--8----------8--(8)----||
|------------------|---------------|------------------|-----------------------||


 Interlude
                                                                To Coda
  Eb5 F5     C5/G     C5           F5/CBb5/F  EbF5       C5
  Gtr IV
                                                             ~~~~~~~~~~
   +Q    +Q     +E  E Q     H      E E  Q     H       Q   S  E.    +W
|-(13)--(13)r==(13)------|------------------|-------------------|----------||
|------------------------|------------------|------------11s13--|-(13)-----||
|------------------------|------------------|-------------------|----------||
|------------------------|------------------|-------------------|----------||
|------------------------|-----------x-17\--|-------------------|----------||
|------------------------|------------------|-------------------|----------||
|
| Gtrs I, II
|   E E   E  E   Q    Q    +Q.   E E E  Q     E E E E Q   Q         W
|------------------------|------------------|-------------------|----------||
|---4s6------------------|------------------|-4s6---------------|----------||
|---3s5------5--------5--|-(5)----------3---|-3s5---5-----5-----|----------||
|---1s3------5--------5--|-(5)---5-3h5--3---|-1s3---5-----5-----|----------||
|---------3-----------3--|-(3)---3-3--------|-----3-------3-----|----------||
|------------------------|------------------|-------------------|----------||


 Verse 2
  EbF5  C5/G C5           F5/CBb5/FEbF5       C5            F5/CBb5/F
  W                W               W                Q   E E E E E E
|---------------|----------------|---------------|-------------------|
|---------------|----------------|---------------|-------------------|
|---------------|----------------|---------------|-------------------|
|---------------|----------------|---------------|------------1-3p1--|
|---------------|----------------|---------------|--------1-3--------|
|---------------|----------------|---------------|------3------------|
|
| E E E E Q  Q    +Q.   E E E Q    E E E E Q  Q    +Q.    E E E Q
|---------------|----------------|---------------|-------------------|
|-4s6-----------|----------------|-4s6-----------|-------------------|
|-3s5---5----5--|-(5)---------3--|-3s5---5----5--|-(5)----------3----|
|-1s3---5----5--|-(5)---5-3h5-3--|-1s3---5----5--|-(5)----5-3h5-3----|
|-----3------3--|-(3)---3-3------|-----3------3--|-(3)----3-3--------|
|---------------|----------------|---------------|-------------------|


                                                               D.S. al Coda
  EbF5       C5           F5/CBb5/FEbF5  C5/G                C5    F5/C Bb5/F
                                                                         ~~
  W                W               W                Q   E  a  E  a  E E  Q
|---------------|----------------|---------------|---------------------------|
|---------------|----------------|---------------|--------10s11--------------|
|---------------|----------------|---------------|--------11s12-12s10-8------|
|---------------|----------------|---------------|----------------------10---|
|---------------|----------------|---------------|---------------------------|
|---------------|----------------|---------------|---------------------------|
|
| E E E E Q  Q    +Q.   E E E Q    E E E E Q  Q    +Q.        E     E E  Q
|---------------|----------------|---------------|---------------------------|
|-4s6-----------|----------------|-4s6-----------|---------------------------|
|-3s5---5----5--|-(5)---------3--|-3s5---5----5--|-(5)-------------------3---|
|-1s3---5----5--|-(5)---5-3h5-3--|-1s3---5----5--|-(5)--------5-----3h5--3---|
|-----3------3--|-(3)---3-3------|-----3------3--|-(3)--------3-----3--------|
|---------------|----------------|---------------|---------------------------|


 Guitar Solo
  &
  Eb5F5            C5            F5/C Gm
           ~~~~~~~
   E E  E  E  +Q   E  E    Q   E S  S E  E Q
|-----------------------|---------------------|
|-11--------------------|---------------------|
|-10---10---------------|---------------------|
|---------10-(10)--8h10-|-------------8----8--|
|-----------------------|--------8h10---10----|
|-----------------------|---------------------|
|
|  E E  E  E   Q   Q      +Q   E S  S E  E Q
|-----------------------|---------------------|
|--4s6------------------|---------------------|
|--3s5-----5-------5----|-(5)---------3-------|
|--1s3-----5-------5----|-(5)----3h=5-5--3----|
|-------3----------3----|-(3)----3-------3----|
|-----------------------|---------------------|


    EbF5            C5               F5/C   F5/C
            ~~~~~~~
  a E e  E  E  +Q   E   +E     Q   E S  S E  E E  E
|---------------------------|-----------------------|
|-6s8-----------------------|-----------------------|
|-----8-10----------8b9-(8)-|-----------------------|
|----------10-(10)----------|--x----------8----8----|
|---------------------------|--x-----8h10---10---10-|
|---------------------------|-----------------------|
|
|   E E  E  E   Q   Q         +Q   E S  S E  E Q
|---------------------------|-----------------------|
|---4s6---------------------|-----------------------|
|---3s5-----5-------5-------|-(5)---------3---------|
|---1s3-----5-------5-------|-(5)----3h=5-5--3------|
|--------3----------3-------|-(3)----3-------3------|
|---------------------------|-----------------------|


  Eb5    F5            C5               F5/C
               ~~~~~~~
   E     E  E  E  +Q   E   +E     Q   E S  S E  E E  E
|------------------------------|-----------------------|
|------------------------------|-----------------------|
|-10pb12-8-10----------8b9-(8)-|-----------------------|
|-------------10-(10)----------|-------------8----8----|
|------------------------------|--------8h10---10---10-|
|------------------------------|-----------------------|
|
|  E     E  E  E   Q   Q         +Q   E S  S E  E Q
|------------------------------|-----------------------|
|--4s====6---------------------|-----------------------|
|--3s====5-----5-------5-------|-(5)---------3---------|
|--1s====3-----5-------5-------|-(5)----3h=5-5--3------|
|-----------3----------3-------|-(3)----3-------3------|
|------------------------------|-----------------------|


          C5/G    F5
                   ~~~~~~~~~~
  E  E  E  E Q  a  Q     +Q   E  E  E  E  a  E E
|---------------------|--------------------------|
|---------------------|---------------11---------|
|-8----10-------8h10--|-(10)--8-10s12----12s10-8-|
|---10----10----------|--------------------------|
|---------------------|--------------------------|
|---------------------|--------------------------|
|
| E  E  E  E Q     Q     +Q   Q     H
|---------------------|--------------------------|
|-4s=6-------------6--|--(6)---------------------|
|-3s=5-----5-------5--|--(5)---------------------|
|-1s=3-----5-------3--|--(3)---------------------|
|-------3-------------|--------------------------|
|---------------------|--------------------------|


     Eb5F5             C5                 F5/CGm
               ~~~~~~~
   a  E  E  E  E  +Q   E  E    E   S S E  S S E E E     E
|---------------------------|------------------------------|
|----------10---------------|------------------------------|
|-10s12----10---------------|------------------------------|
|-------10----10-(10)-------|--8------------------1b1.5----|
|----------------------8h10-|-----10s8-6\-----1-3-------3/-|
|---------------------------|-------------1s3--------------|
|
|     E  E  E  E   Q   Q      +Q       E  S S E E Q
|---------------------------|------------------------------|
|-----4s=6------------------|------------------------------|
|-----3s=5-----5-------5----|-(5)-------------3------------|
|-----1s=3-----5-------5----|-(5)---------3h5-5-3----------|
|-----------3----------3----|-(3)---------3-----3----------|
|---------------------------|------------------------------|


  Eb5F5            C5                F5/C  Gm
           ~~~~~~~
   E E  E  E  +Q   E      E    Q   E  S  S  S  S  E  a  E E
|---------------------------|---------------------------------|
|---------------------------|--------------11----11-----------|
|-10-8-10----------8b8.5----|--------10s12----12----12s10-8---|
|---------10-(10)--------10-|---------------------------------|
|---------------------------|---------------------------------|
|---------------------------|---------------------------------|
|
|  E E  E  E   Q   Q          +Q   E  S  S  E     E     Q
|---------------------------|---------------------------------|
|--4s6----------------------|---------------------------------|
|--3s5-----5-------5--------|-(5)-----------3-----------------|
|--1s3-----5-------5--------|-(5)-----3h=5--5-----3-----------|
|-------3----------3--------|-(3)-----3-----------3-----------|
|---------------------------|---------------------------------|


     Eb5F5            C5               F5/C   Gm
              ~~~~~~~
   a  E E  E  E  +Q   E  E    E   E  E E    a E E E E
|--------------------------|--------------------------|
|---------10---------------|--------------------------|
|-10s12-8-10---------------|--------------------------|
|------------10-(10)-------|--8--10----8--------------|
|---------------------8h10-|--------10-----10s8-6---0-|
|--------------------------|----------------------8---|
|
|     E E  E  E   Q   Q      +Q      E S S    E E Q
|--------------------------|--------------------------|
|-----4s6------------------|--------------------------|
|-----3s5-----5-------5----|-(5)--------------3-------|
|-----1s3-----5-------5----|-(5)-------3h5----5-3-----|
|----------3----------3----|-(3)-------3--------3-----|
|--------------------------|--------------------------|


  Eb5    F5            F5
               ~~~~~~~
   E     E  E  E  +Q   E  E    E  a  Q.     +Q    +S  S E
|---------------------------|-----------------------------||
|---------------------------|-10--------------------------||
|-10pb12-8-10----------8----|-10--8s10-----(10)--(10)-0---||
|-------------10-(10)----10-|-----------------------------||
|---------------------------|-----------------------------||
|---------------------------|-----------------------------||
|
|  E     E  E  E   Q   Q      +Q        Q    H
|---------------------------|-----------------------------||
|--4s====6-------------6----|-(6)-------------------------||
|--3s====5-----5-------5----|-(5)-------------------------||
|--1s====3-----5-------3----|-(3)-------------------------||
|-----------3---------------|-----------------------------||
|---------------------------|-----------------------------||


 Chorus 2
  C    F5/G       Eb   Ab5/Bb     F     Bb5/C        F           Bb5/C
  Gtr IV
                                                          ~~~~~~~
  W               W                W                  Q   H.
|---------------|---------------|------------------|------------------------|
|---------------|---------------|------------------|-----11pb13=============|
|---------------|---------------|------------------|------------------------|
|---------------|---------------|------------------|------------------------|
|---------------|---------------|------------------|------------------------|
|---------------|---------------|------------------|------------------------|
|
| Gtr II
| Q  E E +H       Q  E E +H        Q  E  E  +H        Q   E       E  +H
|---------------|---------------|------------------|------------------------|
|-5----6-(6)----|-8----9-(9)----|-10----11-(11)----|-10----------11-(11)----|
|-5----5-(5)----|-8----8-(8)----|-10----10-(10)----|-10----------10-(10)----|
|-5----5-(5)----|-8----8-(8)----|-10----10-(10)----|-10----------10-(10)----|
|-3-------------|-6-------------|--8---------------|--8---------------------|
|---------------|---------------|------------------|------------------------|
|
| Gtr I
| Q  E E +H       Q  E E +H        Q  E  E  +H        Q   E       E  +H
|---------------|---------------|------------------|------------------------|
|---------------|---------------|------------------|------------------------|
|---------------|---------------|------------------|------------------------|
|-5----7-(7)----|-8----6-(6)----|-10-----8--(8)----|-10-----------8--(8)----|
|-3----3-(3)----|-6----6-(6)----|--8-----8--(8)----|--8-----------8--(8)----|
|---------------|---------------|------------------|------------------------|


  C       F5/G       Eb   Ab5/Bb     F     Bb5/C        F           Bb5/C
    ~~~~                                                     ~~~~~~~
   +W                W                W                  Q   H.
|------------------|---------------|------------------|-----13pb15=============|
|-(11)-------------|---------------|------------------|------------------------|
|------------------|---------------|------------------|------------------------|
|------------------|---------------|------------------|------------------------|
|------------------|---------------|------------------|------------------------|
|------------------|---------------|------------------|------------------------|
|
|   Q   E E +H       Q  E E +H        Q  E  E  +H        Q   E       E  +H
|------------------|---------------|------------------|------------------------|
|---5-----6-(6)----|-8----9-(9)----|-10----11-(11)----|-10----------11-(11)----|
|---5-----5-(5)----|-8----8-(8)----|-10----10-(10)----|-10----------10-(10)----|
|---5-----5-(5)----|-8----8-(8)----|-10----10-(10)----|-10----------10-(10)----|
|---3--------------|-6-------------|--8---------------|--8---------------------|
|------------------|---------------|------------------|------------------------|
|
|   Q   E E +H       Q  E E +H        Q  E  E  +H        Q   E       E  +H
|------------------|---------------|------------------|------------------------|
|------------------|---------------|------------------|------------------------|
|------------------|---------------|------------------|------------------------|
|---5-----7-(7)----|-8----6-(6)----|-10-----8--(8)----|-10-----------8--(8)----|
|---3-----3-(3)----|-6----6-(6)----|--8-----8--(8)----|--8-----------8--(8)----|
|------------------|---------------|------------------|------------------------|


  C       F5/G       Eb   Ab5/Bb     F     Bb5/C        F           Bb5/C
    ~~~~                                                     ~~~~~~~
   +W                W                W                  Q   H.
|-(13)-------------|---------------|------------------|------------------------|
|------------------|---------------|------------------|------------------------|
|------------------|---------------|------------------|-----10pb12=============|
|------------------|---------------|------------------|------------------------|
|------------------|---------------|------------------|------------------------|
|------------------|---------------|------------------|------------------------|
|
|   Q   E E +H       Q  E E +H        Q  E  E  +H        Q   E       E  +H
|------------------|---------------|------------------|------------------------|
|---5-----6-(6)----|-8----9-(9)----|-10----11-(11)----|-10----------11-(11)----|
|---5-----5-(5)----|-8----8-(8)----|-10----10-(10)----|-10----------10-(10)----|
|---5-----5-(5)----|-8----8-(8)----|-10----10-(10)----|-10----------10-(10)----|
|---3--------------|-6-------------|--8---------------|--8---------------------|
|------------------|---------------|------------------|------------------------|
|
|   Q   E E +H       Q  E E +H        Q  E  E  +H        Q   E       E  +H
|------------------|---------------|------------------|------------------------|
|------------------|---------------|------------------|------------------------|
|------------------|---------------|------------------|------------------------|
|---5-----7-(7)----|-8----6-(6)----|-10-----8--(8)----|-10-----------8--(8)----|
|---3-----3-(3)----|-6----6-(6)----|--8-----8--(8)----|--8-----------8--(8)----|
|------------------|---------------|------------------|------------------------|


  C       F5/G       Eb   Ab5/Bb     F     Bb5/C
    ~~~~
   +W                W                W
|------------------|---------------|------------------|
|------------------|---------------|------------------|
|-(10)-------------|---------------|------------------|
|------------------|---------------|------------------|
|------------------|---------------|------------------|
|------------------|---------------|------------------|
|
|   Q   E E +H       Q  E E +H        Q  E  E  +H
|------------------|---------------|------------------|
|---5-----6-(6)----|-8----9-(9)----|-10----11-(11)----|
|---5-----5-(5)----|-8----8-(8)----|-10----10-(10)----|
|---5-----5-(5)----|-8----8-(8)----|-10----10-(10)----|
|---3--------------|-6-------------|--8---------------|
|------------------|---------------|------------------|
|
|   Q   E E +H       Q  E E +H        Q  E  E  +H
|------------------|---------------|------------------|
|------------------|---------------|------------------|
|------------------|---------------|------------------|
|---5-----7-(7)----|-8----6-(6)----|-10-----8--(8)----|
|---3-----3-(3)----|-6----6-(6)----|--8-----8--(8)----|
|------------------|---------------|------------------|


  F                    Bb5/C
      TP        TP              ~~~~~~~
   E  E..       E..             Q..
|----------------------------------------||
|----11--------11--------------11--------||
|----13pb15====13pb15==========13pb15====||
|----------------------------------------||
|----------------------------------------||
|----------------------------------------||
|
|  Q         E          E  +H
|----------------------------------------||
|-10-------------------11-(11)-----------||
|-10-------------------10-(10)-----------||
|-10-------------------10-(10)-----------||
|--8-------------------------------------||
|----------------------------------------||
|
|  Q         E          E  +H
|----------------------------------------||
|----------------------------------------||
|----------------------------------------||
|-10--------------------8--(8)-----------||
|--8--------------------8--(8)-----------||
|----------------------------------------||


 Bridge
  C5             Bb5                 A5          Bb5
      ~~~~~~~~~~~~~~~~~                       ~~~~~~~~~
  E   E  +S   E.    Q    E     +E    E   E S  E.    Q    E  E
|-----------------------11b12-(11)-|--------------------11----|
|----13-(13)-13----13--------------|----13---13----13------13-|
|----------------------------------|--------------------------|
|----------------------------------|--------------------------|
|----------------------------------|--------------------------|
|----------------------------------|--------------------------|
|
| Q.             E +H                Q.          E +H
|----------------------------------|--------------------------|
|----------------------------------|--------------------------|
|-5--------------3-(3)-------------|-2-----------3-(3)--------|
|-5--------------3-(3)-------------|-2-----------3-(3)--------|
|-3--------------1-(1)-------------|-0-----------1-(1)--------|
|----------------------------------|--------------------------|
|
| Q.             E +H                Q.          E +H
|----------------------------------|--------------------------|
|----------------------------------|--------------------------|
|-5--------------3-(3)-------------|-2-----------3-(3)--------|
|-5--------------3-(3)-------------|-2-----------3-(3)--------|
|-3--------------1-(1)-------------|-0-----------1-(1)--------|
|----------------------------------|--------------------------|


    F5/C                                            F5               Bb5/F
                                    |--3--|    |---3----|  |---3---|
  E  S      +S   +Q    +E      +E   E  E  E    E  E     E  E  a  E E  E  E E E
|---13pb14r(13)-(13)--(13)b15-(13)-11----13-|-11-------------------------------|
|-------------------------------------13----|----13-------11-------------------|
|-------------------------------------------|----------12----12s10-8-----------|
|-------------------------------------------|------------------------10----8---|
|-------------------------------------------|---------------------------10-----|
|-------------------------------------------|----------------------------------|
|
| E  E            Q     H                      E     E     Q          H
|-------------------------------------------|----------------------------------|
|---13-----------------13-------------------|-------13---------------13--------|
|---10-----------------10-------------------|-------10---------------10--------|
|---10-----------------10-------------------|-------10---------------10--------|
|-------------------------------------------|----------------------------------|
|-------------------------------------------|----------------------------------|
|
| E  E            Q     H                      E     E     Q          H
|-------------------------------------------|----------------------------------|
|-------------------------------------------|----------------------------------|
|----5------------------3-------------------|--------5----------------3--------|
|----3------------------3-------------------|--------3----------------3--------|
|-------------------------------------------|----------------------------------|
|-------------------------------------------|----------------------------------|


  C5      Bb5         A5     Bb5                            F5/C
      ~~~~~~~~~~~~~~~~~~~~~                                  ~~~
                                              |-3--|
  E   Q.     +H        +Q.    E  E   S  S  a  E E  e    E a  Q.     +E. S  e E
|-------------------|--------------------------------|-------------------------|
|----13-----(13)----|-(13)---11-13-----11------------|-10----------------------|
|-------------------|---------------12----12-10-8----|-10-8s10-----(10)p8------|
|-------------------|-----------------------------10-|--------------------10---|
|-------------------|--------------------------------|-------------------------|
|-------------------|--------------------------------|-------------------------|
|
| Q.      E  +H         Q.    E +H                      E    E  Q    H
|-------------------|--------------------------------|-------------------------|
|-------------------|--------------------------------|------13------13---------|
|-5-------3--(3)----|---2-----3-(3)------------------|------10------10---------|
|-5-------3--(3)----|---2-----3-(3)------------------|------10------10---------|
|-3-------1--(1)----|---0-----1-(1)------------------|-------------------------|
|-------------------|--------------------------------|-------------------------|
|
| Q.      E  +H         Q.    E +H                      E    E  Q    H
|-------------------|--------------------------------|-------------------------|
|-------------------|--------------------------------|-------------------------|
|-5-------3--(3)----|---2-----3-(3)------------------|-------5-------3---------|
|-5-------3--(3)----|---2-----3-(3)------------------|-------3-------3---------|
|-3-------1--(1)----|---0-----1-(1)------------------|-------------------------|
|-------------------|--------------------------------|-------------------------|


    F5                      Bb5/F
  E  E       E       E       E       E       S      +S  E
|-------------------------------------------------------------||
|---11------11------11------11------11------11----------------||
|---10pb12==10pb12==10pb12==10pb12==10pb12==10pb12r(10)-8b8.5-||
|-------------------------------------------------------------||
|-------------------------------------------------------------||
|-------------------------------------------------------------||
|
| E  E       Q               H
|-------------------------------------------------------------||
|---13----------------------13--------------------------------||
|---10----------------------10--------------------------------||
|---10----------------------10--------------------------------||
|-------------------------------------------------------------||
|-------------------------------------------------------------||
|
| E  E       Q               H
|-------------------------------------------------------------||
|-------------------------------------------------------------||
|----5-----------------------3--------------------------------||
|----3-----------------------3--------------------------------||
|-------------------------------------------------------------||
|-------------------------------------------------------------||


 Outro Solo
  Eb5F5        C5            F5/C
  Gtr IV
        ~~
   Q    H      E E    E  E E  E  E E      S E.
|------------------|---------------------------|
|------------------|---------------------------|
|------------------|---------------8b8.5-------|
|-10---10------8---|---------10-10-------10p8--|
|------------------|-10--6---------------------|
|------------------|---------------------------|
|
| Gtrs I, II
|  E E  E E Q  Q     +Q.      E  E E      Q
|------------------|---------------------------|
|--4s6-------------|---------------------------|
|--3s5----5----5---|-(5)-----------------------|
|--1s3----5----5---|-(5)------3--5-3-----------|
|-------3------3---|-(3)------3--3-3-----------|
|------------------|---------------------------|


  EbF5         C5               C5
  E  E Q    Q  E  E    E  E E E +E  E    E E
|-------------------|--------------------------|
|-------------------|--------------------------|
|-------------------|--------------------------|
|-8s10-----10--8----|-----8--------------------|
|----------------10-|---------6-(6)-6pb8-------|
|-------------------|--8-----------------8s3\--|
|
| E  E E E  Q  Q      +Q.     E  E  E    Q
|-------------------|--------------------------|
|-4s=6--------------|--------------------------|
|-3s=5---5-----5----|-(5)----------------------|
|-1s=3---5-----5----|-(5)-----3--5--3----------|
|------3-------3----|-(3)-----3--3--3----------|
|-------------------|--------------------------|


  EbF5        C5             F5/C
    ~~~~~~~~~                ~~~~~~
  e Q.     Q  E. S    e  e e E +Q    Q
|------------------|------------------------|
|------------------|------------------------|
|------------------|------------------------|
|------------------|-----------------1b1.5--|
|---3------3--1----|--3--1---3-(3)----------|
|-0--------------3-|-------3----------------|
|
| E E  E E Q  Q      +Q.     E  E  E Q
|------------------|------------------------|
|-4s6--------------|------------------------|
|-3s5----5----5----|-(5)--------------------|
|-1s3----5----5----|-(5)-----3--5--3--------|
|------3------3----|-(3)-----3--3--3--------|
|------------------|------------------------|


  EbF5  C5/G  F5
      ~
  E E Q   E E E E    E  E E E E E E E
|-----------------|--------------------|
|-----------------|--------------------|
|-----------------|---------------5----|
|-----------------|-----3-3-1-3s5---5--|
|---3-3---3---1---|--------------------|
|---------------3-|--1-----------------|
|
| E E E E Q   Q     +Q    Q   H
|-----------------|--------------------|
|-4s6---------6---|-(6)----------------|
|-3s5---5-----5---|-(5)----------------|
|-1s3---5-----3---|-(3)----------------|
|-----3-----------|--------------------|
|-----------------|--------------------|


  EbF5          C5                F5/C
  E E E E E E   +E  S S    E  E E E  E   E     +E   E
|-----------------------|-----------------------------|
|---------4-6b7-(6)r6-4-|--6----6---<6>-<6>b7r(<6>)-4-|
|-----3-5---------------|-----3-----------------------|
|-3s5-------------------|-----------------------------|
|-----------------------|-----------------------------|
|-----------------------|-----------------------------|
|
| E E E E Q      Q        +Q.     E  E   E      Q
|-----------------------|-----------------------------|
|-4s6-------------------|-----------------------------|
|-3s5---5--------5------|-(5)-------------------------|
|-1s3---5--------5------|-(5)-----3--5---3------------|
|-----3----------3------|-(3)-----3--3---3------------|
|-----------------------|-----------------------------|


  EbF5          C5            F5/C
                 ~~~~~~~~~~
  E E E E E  E   Q     +Q   E E E E E  E
|--------------------|-----------------------|
|-6---6-4-6-<4>------|------4---6------------|
|---5-----------<5>--|-(5)----5---5---10b12==|
|--------------------|-----------------------|
|--------------------|-----------------------|
|--------------------|-----------------------|
|
| E E E E Q      Q     +Q.    E E E Q
|--------------------|-----------------------|
|-4s6----------------|-----------------------|
|-3s5---5--------5---|-(5)-------------------|
|-1s3---5--------5---|-(5)----3-5-3----------|
|-----3----------3---|-(3)----3-3-3----------|
|--------------------|-----------------------|


  Eb5 F5                         C5                                  F5/C
   +E  S  S      E  E      +E  E  E  E    S      S       +E     +E    E    E    E   E    E
|--------------------------------------|----------------------------------------------------|
|-----11--------11---------------------|----------------------------------------------------|
|-(10)---10pb12----10pb12r(10)-8-10----|-10pb12-10pb11r(<10>)-(<10>)-[8]-[10]------<8>-<10>-|
|-----------------------------------10-|--------------------------------------[10]----------|
|--------------------------------------|----------------------------------------------------|
|--------------------------------------|----------------------------------------------------|
|
|   E  E         E  E       Q     Q      +Q.                          E    E    E   Q
|--------------------------------------|----------------------------------------------------|
|---4s=6-------------------------------|----------------------------------------------------|
|---3s=5------------5-------------5----|-(5)------------------------------------------------|
|---1s=3------------5-------------5----|-(5)--------------------------3----5----3-----------|
|----------------3----------------3----|-(3)--------------------------3----3----3-----------|
|--------------------------------------|----------------------------------------------------|


  Eb5  F5               F5
                                         ~~~~~~~~~~~~~~~~
    E   E    E  E  E  E E  E    E  a  E  H.          +H     H
|----------------------------|--------------------|---------x----|
|----------------------------|--------------------|---------x----|
|-[11]p[8]-[10]p8-10----8----|-10--8s10-10--------|-(10)----x----|
|--------------------10---10-|--------------------|--------------|
|----------------------------|--------------------|--------------|
|----------------------------|--------------------|--------------|
|
|   E   E    E  E  Q    Q      +Q        Q   H        W
|----------------------------|--------------------|--------------|
|---4s==6---------------6----|-(6)----------------|--------------|
|---3s==5-------5-------5----|-(5)----------------|--------------|
|---1s==3-------5-------3----|-(3)----------------|--------------|
|------------3---------------|--------------------|--------------|
|----------------------------|--------------------|--------------|


  Eb5F5          C5          F5/C
           ~~~~~~~~~~~~~~~~
   E  E E  E  H        +Q.     E   a  E E  E  E
|-------------------|---------------------------|
|-11s13---13-13-----|-(13)---[11]---------------|
|-------------------|-------------12s10p8-10----|
|-------------------|------------------------10-|
|-------------------|---------------------------|
|-------------------|---------------------------|
|
|  E  E E  E  Q  Q     +Q.     E      E E  Q
|-------------------|---------------------------|
|--4s=6-------------|---------------------------|
|--3s=5----5-----5--|--(5)----------------------|
|--1s=3----5-----5--|--(5)-----3------5-3-------|
|-------3--------3--|--(3)-----3------3-3-------|
|-------------------|---------------------------|


  EbF5               C5          F5/C
          ~~~~~~~~~~~~~~~~~~~~~
  Q    S  E.    +H         +Q.    E  a  E E  E E
|-----------------------|----------------------------|
|-----11s13----(13)-----|-(13)---11------------------|
|-----------------------|-----------12s10p8-10-8b8.5-|
|-----------------------|----------------------------|
|-----------------------|----------------------------|
|-----------------------|----------------------------|
|
| E E  E     E   Q   Q     +Q.    E     E E  Q
|-----------------------|----------------------------|
|-4s6-------------------|----------------------------|
|-3s5--------5-------5--|--(5)-----------------------|
|-1s3--------5-------5--|--(5)----3-----5-3----------|
|------3-------------3--|--(3)----3-----3-3----------|
|-----------------------|----------------------------|


  EbF5         C5           F5/C        EbF5           F5
       ~~~~~~~~~~~~~~~~~                                          ~
  E E  H.           +E  E E E E E E E   E E  E  E  Q   E E    Q   H     E E
|-----------------|-------------------|--------------------|-----------------|
|-----------------|-------------------|--------------------|-----------------|
|-----------------|-------------------|--------------------|-----------------|
|-----------------|---------1-3-3-1---|--------------------|------3-----1-3--|
|------3----------|-(3)-1-3---------3-|-1-3-<3>---<3>--1---|-----------------|
|---8\------------|-------------------|--------------------|-----------------|
|
| E E  E  E Q  Q    +Q.     E E E Q     E E  E  E  Q   Q     +Q   Q  H
|-----------------|-------------------|--------------------|-----------------|
|-4s6-------------|-------------------|-4s6------------6---|-(6)-------------|
|-3s5-----5----5--|-(5)---------------|-3s5-----5------5---|-(5)-------------|
|-1s3-----5----5--|-(5)-----3-5-3-----|-1s3-----5------3---|-(3)-------------|
|------3-------3--|-(3)-----3-3-3-----|------3-------------|-----------------|
|-----------------|-------------------|--------------------|-----------------|


  EbF5          C5                F5/C
  E E Q    E. S E  E     E   E  Q    E   E  E S S
|---------------------|---------------------------|
|---------------------|---------------------------|
|---------------------|---------------------------|
|-1-------------------|---------------------------|
|---3-----[3]-x-x-[3]-|-----[3]-----[1]-[3]---1-2-|
|---------------------|---------------------------|
|
| E E E E  Q    Q       +Q.       E  E   E  Q
|---------------------|---------------------------|
|-4s6-----------------|---------------------------|
|-3s5---5-------5-----|-(5)-----------------------|
|-1s3---5-------5-----|-(5)-------3--5---3--------|
|-----3---------3-----|-(3)-------3--3---3--------|
|---------------------|---------------------------|


  EbF5        C5                    F5/C
  E  E Q   Q  E     E    E  E E E E  S  S  E E
|---------------------|-------------------------|
|---------------------|-------------------------|
|------5---5--------5-|--5----5---8-10-10-10s8--|
|------5---5--------5-|--5----5---8-10-10-10s8--|
|-3-----------8b8.5---|-----8---8---------------|
|---/8----------------|-------------------------|
|
| E  E E E Q  Q         +Q.     E E  E     Q
|---------------------|-------------------------|
|-4s=6----------------|-------------------------|
|-3s=5---5----5-------|-(5)---------------------|
|-1s=3---5----5-------|-(5)-----3-5--3----------|
|------3------3-------|-(3)-----3-3--3----------|
|---------------------|-------------------------|


  EbF5          C5               F5/C            EbF5 C5
  E E E  E E  E E E    E   S S E E E E E     E   E  E  E  E H
|-------------------|--------------------------|-----------------*|
|-------------------|--------------------------|-----------------*|
|-------------------|--------------------------|-8s10------------*|
|------------10-----|--------------------------|-8s10-10-10------*|
|-------10----------|------------------6b6.5---|------10-10------*|
|-6---8--8------8-8-|-----11p8s6---8-8---------|-----------------*|
|
| E E E  E Q    Q     +Q.        E E E Q         E  E  E  E H
|-------------------|--------------------------|-----------------*|
|-4s6---------------|--------------------------|-4s=6------------*|
|-3s5----5------5---|-(5)----------------------|-3s=5--5--5------*|
|-1s3----5------5---|-(5)--------3-5-3---------|-1s=3--5--5------*|
|-----3---------3---|-(3)--------3-3-3---------|-------3--3------*|
|-------------------|--------------------------|-----------------*|


Duration Legend
---------------
W - whole; H - half; Q - quarter; E - 8th; S - 16th; T - 32nd; X - 64th; a - acciaccatura
+ - note tied to previous; . - note dotted; .. - note double dotted
Uncapitalized letters represent notes that are staccato (1/2 duration)
Irregular groupings are notated above the duration line
Duration letters will always appear directly above the note/fret number it represents the
duration for.  Duration letters with no fret number below them represent rests.  Multi-
bar rests are notated in the form Wxn, where n is the number of bars to rest for.  Low
melody durations appear below the staff

Tablature Legend
----------------
 h   - hammer-on
 p   - pull-off
 b   - bend
 pb  - pre-bend
 r   - bend release (if no number after the r, then release immediately)
 /\  - slide into or out of (from/to "nowhere")
 s   - legato slide
 S   - shift slide
  - natural harmonic
[n]  - artificial harmonic
n(n) - tapped harmonic
 ~   - vibrato
 tr  - trill
 T   - tap
 TP  - trem. picking
 PM  - palm muting
\n/  - tremolo bar dip; n = amount to dip
 \n  - tremolo bar down
 n/  - tremolo bar up
/n\  - tremolo bar inverted dip
 =   - hold bend; also acts as connecting device for hammers/pulls
 <>  - volume swell (louder/softer)
 x   - on rhythm slash represents muted slash
 o   - on rhythm slash represents single note slash

Misc Legend
-----------
 |  - bar
||  - double bar
||o - repeat start
o|| - repeat end
*|  - double bar (ending)
 :  - bar (freetime)
 $  - Segno
 &  - Coda
Tempo markers -  = BPM(8/16=s8/s16), where s8 = swing 8ths, s16 = swing 16ths
comments
We did not receive enough feedback on this tab! Please rate:
print report bad tab
1 2 3 4 5
I want to post or [tab]
guest
You may want to rate the tab now too:
select rating
Please do not post tabs as comments. Select "correction" instead!