Oops, an error
Loading. Please wait.

Gimme All Your Lovin Tab

ver3
ver3

Whole song

More versions @911Tabs.com
17,247 views 6 this week
2 commentsread comments
1 2 3 4 5
accurate
x 3
Autoscroll
+/-
esc
set tempo
stop
Contributor
Tabbers playing skills
advanced ++
WARNING: You are trying to view
                                    content from Ultimate-Guitar.com
                                    in an unauthorized application,
                                    which is prohibited.

                                    Please use an official Ultimate
                                    Guitar Tabs application for iPhone,
                                    iPad or Android to access legitimate
                                    chords, guitar, bass, and drum tabs
                                    from Ultimate-Guitar.com database.

                                    Type "ultimate guitar tabs" in Apple
                                    App Store's or Android Market's
                                    search to find the application.
-------------------------------------------------------------------------------
                             GIMME ALL YOUR LOVIN' - ZZ TOP
-------------------------------------------------------------------------------

Tabbed by: Isaias Garcia (TexasFury)

Tuning: Standard


Lead

     W                   W                   W                   W                 
E||-------------------|-------------------|-------------------|-------------------|
B||-------------------|-------------------|-------------------|-------------------|
G||-------------------|-------------------|-------------------|-------------------|
D||-------------------|-------------------|-------------------|-------------------|
A||-------------------|-------------------|-------------------|-------------------|
E||-------------------|-------------------|-------------------|-------------------|


                                                         |---3--|   |---3--|   
  W                   E   E    H.               H        E   E  E   E   E  E   
-------------------|-------------------------|-----------8-----------------8--|
-------------------|-----11b---L~------------|--L-----------11--8-------8-----|
-------------------|-------------------------|---------------------10b--------|
-------------------|-------------------------|--------------------------------|
-------------------|-------------------------|--------------------------------|
-------------------|-------------------------|--------------------------------|


                                  |---3--|   |---3--|                          
   W                     H        E   E  E   E   E  E      W                   
----------------------|-----------8-----------------8--|----------------------|
--11b~----------------|--L-----------11--8-------8-----|--11b~----------------|
----------------------|---------------------10b--------|----------------------|
----------------------|--------------------------------|----------------------|
----------------------|--------------------------------|----------------------|
----------------------|--------------------------------|----------------------|


           |---3--|   |---3--|                                     |---3--|   |---3--|   
  H        E   E  E   E   E  E      W                     H        E   E  E   E   E  E   
-----------8-----------------8--|----------------------|-----------8-----------------8--|
--L-----------11--8-------8-----|--11b~----------------|--L-----------11--8-------8-----|
---------------------10b--------|----------------------|---------------------10b--------|
--------------------------------|----------------------|--------------------------------|
--------------------------------|----------------------|--------------------------------|
--------------------------------|----------------------|--------------------------------|

Verse 1
             |--3-|                                                                         
   H         Q    E      Q        W                   W                   W                 
-------------------------------|-------------------|-------------------|-------------------|
-------------------------------|-------------------|-------------------|-------------------|
------------------x------------|-------------------|-------------------|-------------------|
--10~-------------x------------|-------------------|-------------------|-------------------|
-------------------------------|-------------------|-------------------|-------------------|
---------------------13g15\----|-------------------|-------------------|-------------------|


                                                                       |--3-|             
  W                   W                   W                   H        Q    E      Q      
-------------------|-------------------|-------------------|-----------------------------|
-------------------|-------------------|-------------------|-----------------------------|
-------------------|-------------------|-------------------|----------------x------------|
-------------------|-------------------|-------------------|----------------x------------|
-------------------|-------------------|-------------------|-----------------------------|
-------------------|-------------------|-------------------|-------------------13g15\----|


Chorus 1
                               PM PM                                                        
  W                   H        E  E  E  E     W                   H        E  E      Q      
-------------------|-----------------------|-------------------|---------------------------|
-------------------|-----------------------|-------------------|---------------------------|
-------------------|-----------------------|-------------------|--------------x------------|
-------------------|-----------------------|-------------------|--------------x------------|
-------------------|-----------------6-----|-------------------|---------------------------|
-------------------|-----------6--8-----8--|--L----------------|--L--------L-----11g15\----|


                               PM PM                                                        
  W                   H        E  E  E  E     W                   H        E  E      Q      
-------------------|-----------------------|-------------------|---------------------------|
-------------------|-----------------------|-------------------|---------------------------|
-------------------|-----------------------|-------------------|--------------x------------|
-------------------|-----------------------|-------------------|--------------x------------|
-------------------|-----------------6-----|-------------------|---------------------------|
-------------------|-----------6--8-----8--|--L----------------|--L--------L-----11g15\----|


Verse 2

  W                   W                   W                   W                   W                 
-------------------|-------------------|-------------------|-------------------|-------------------|
-------------------|-------------------|-------------------|-------------------|-------------------|
-------------------|-------------------|-------------------|-------------------|-------------------|
-------------------|-------------------|-------------------|-------------------|-------------------|
-------------------|-------------------|-------------------|-------------------|-------------------|
-------------------|-------------------|-------------------|-------------------|-------------------|


                                                                    Chorus 2

  W                   W                   H        E  E      Q        H        E  E      Q      
-------------------|-------------------|---------------------------|---------------------------|
-------------------|-------------------|---------------------------|---------------------------|
-------------------|-------------------|--------------x------------|--------------x------------|
-------------------|-------------------|--------------x------------|--------------x------------|
-------------------|-------------------|---------------------------|---------------------------|
-------------------|-------------------|-----------------11g15\----|-----------------11g15\----|


     PM      PM PM                                                        
  E  E  Q    E  E  E  E     W                   H        E  E      Q      
-------------------------|-------------------|---------------------------|
-------------------------|-------------------|---------------------------|
-------------------------|-------------------|--------------x------------|
-------------------------|-------------------|--------------x------------|
-------------------6-----|-------------------|---------------------------|
-----1-------6--8-----8--|--L----------------|--L--------L-----11g15\----|


                                 PM      PM PM                                                  
  H        E  E      Q        E  E  Q    E  E  E  E     W                   H.           E  E   
---------------------------|-------------------------|-------------------|---------------------|
---------------------------|-------------------------|-------------------|---------------------|
--------------x------------|-------------------------|-------------------|---------------------|
--------------x------------|-------------------------|-------------------|------------------8--|
---------------------------|-------------------6-----|-------------------|------------------8--|
-----------------11g15\----|-----1-------6--8-----8--|--L----------------|--L------------L-----|


                                                           Guitar Solo

  E  E  E   E  E  E   E  E     E   E  E  E   E   E  E  E     E   E   E   E  Q     E  E    
----------------------------|-----------------------------|------------------------------|
----------------------------|-----------------------------|------------------------------|
----------------------------|-----------------------------|--------------------------8~--|
--8--8------8--8------8--8--|------8--8------8--10--------|-----------------8----10------|
--8--8--6b--8--8--6b--8--8--|--6b--8--8--6b--8--10--6-----|-----10--10--10--8----10------|
----------------------------|--------------------------8--|--L-------8---8---------------|


                                       PM                                                         
  E  E    E   E   Q      E  S S     E  E    Q    Q      E   E     E  E   E   E   Q      E   S  S  
--------------------------------|------------------------------|---------------------------------|
--------------------------------|------8-----------------------|----------------------------8--L-|
--L--8b---------------------8-8-|---------8g9----8b----10------|--8--8b---------------------8h-9-|
---------10--10---L~-----L--8-8-|--10----------------------10--|---------8--10---L~-----L\-------|
--------------------------------|------------------------------|---------------------------------|
--------------------------------|------------------------------|---------------------------------|


  E  E  E  E  E  S  S E   E       E  E   E  E  E  E    Q        E  E  S  S E  E  E  E   E    
------------------------------|------------------------------|------------------------------|
-----------8--L---------------|------------------------------|--------5h-6-6--5--------11b--|
--9--9--L--------8h-9-9-------|----------------8--8b---------|-----5--5--L-5-----5----------|
-------------------------10~--|---L--8------8---------10~----|--L--5--5h-7-7--------5-------|
------------------------------|---------10-------------------|------------------------------|
------------------------------|------------------------------|------------------------------|


                                                                        PM          PH            
  E  E  E   E   E  E  E   E       Q     E  E   Q     E   E       E  E   E   E  E    E     E  E    
-----8--8-------8-----8~--8--|----------8---------------------|----------------------------------|
--L--------11b-----8---------|---10b-------8---------8--------|----------------------------------|
-----------------------------|--(10)----------10b-------10br--|--L--8----------------------------|
-----------------------------|--------------------------------|----------------8--<>8------------|
-----------------------------|--------------------------------|--------10--10----------10g8--6b--|
-----------------------------|--------------------------------|----------------------------------|


                           PM    PM  PM                                          PM              
  Q    Q      S   E.   E   E     E   E  E    E   Q     E   E       E   E   Q     Q      E   E    
------------------------------|--------------------------------|--------------------------------|
------------------------------|------------------------x-------|------13--------16b----13--13---|
------------------------------|---------8b----------------13h--|--14-------------------14--14S--|
-------------(x)-10~---8------|--8----------10---L~------------|--------------------------------|
--L-----------------------10--|-----10-------------------------|----------15--------------------|
-------8----------------------|--------------------------------|--------------------------------|


   E   E   E   E   E   E   E   E       E   E  E  E   Q     E   E    
-----------------------------------|--11b--8---------------8-------|
------15---L--18---L--18--18--18\--|----------8--8--11b------------|
--16----------------------16--16\--|----------8--8------------10b--|
-----------------------------------|-------------------------------|
-----------------------------------|-------------------------------|
-----------------------------------|-------------------------------|


  E   E  E    E   E  E    Q        E   E  E  E   E  E  E   E     E  E   E  E  E   E  E  E    
--------------------------------|-----------------------------|-----------------------------|
--------------------------------|-----------------------------|-----------------------------|
--L------8b------10--8b---------|-----------------------------|-----------------------------|
-----10------10----------10~----|------8--8------8--8------8--|--8------8--8------8--8------|
--------------------------------|--6b--8--8--6b--8--8--6b--8--|--8--6b--8--8--6b--8--8--6b--|
--------------------------------|-----------------------------|-----------------------------|


                                         PM                                                      
  E  E   S  S E   E    E  E   E      E   E  E    E   Q      E  E     E   E  E  E   E  E  E   E   
---------------------------------|--------------------------------|-----------------------------|
---------------------------------|--------------------------------|-----------------------------|
---------------------------------|----------8b--------------------|-----------------------------|
--------------------------8------|--10----------10---L~-----L--8--|------8--8------8--8------8--|
--------------3S--8h--10-----10--|------10---------------------8--|--6b--8--8--6b--8--8--6b--8--|
-----8\--3h-6--------------------|--------------------------------|-----------------------------|


  E  E   E  E  E   E  E  E      E  E  E  E   Q    E  E     E   E   Q     H          
-----------------------------|--------------------------|--------------------------|
-----------------------------|--------------------------|--------------------------|
-----------------------------|-----------------------8--|--Lh--9-------------------|
--8------8--8------8--8--L\--|--------------10----------|---------10-----L~--------|
--8--6b--8--8--6b--8--8--L\--|--------------------------|--------------------------|
-----------------------------|-----8--L--8--------8-----|--------------------------|


Verse 3

                                    |--3-|                                                     
  H         H             H         Q    E      Q        W                   W                 
-----------------------|------------------------------|-------------------|-------------------|
-----------11b~--------|--L---------L-----------------|-------------------|-------------------|
-----------------------|-----------------x------------|-------------------|-------------------|
-----------------------|-----------------x------------|-------------------|-------------------|
-----------------------|------------------------------|-------------------|-------------------|
-----------------------|--------------------13g15\----|-------------------|-------------------|


  Q     H.                H         E  E   Q        W                   W                 
-----------------------|---------------x---------|-------------------|-------------------|
-------11b~------------|--L---------L--x---------|-------------------|-------------------|
-----------------------|-------------------------|-------------------|-------------------|
-----------------------|-------------------------|-------------------|-------------------|
-----------------------|-------------------------|-------------------|-------------------|
-----------------------|------------------12\----|-------------------|-------------------|


Chorus 3

  W                   H        E  E  E   E     W                   W                 
-------------------|------------------------|-------------------|-------------------|
-------------------|------------------------|-------------------|-------------------|
-------------------|------------------------|-------------------|-------------------|
-------------------|------------------------|-------------------|-------------------|
-------------------|-----------------6b-----|-------------------|-------------------|
-------------------|-----------6--8------8--|--L----------------|--L----------------|


  W                   H        E  E  E   E     W                   W                 
-------------------|------------------------|-------------------|-------------------|
-------------------|------------------------|-------------------|-------------------|
-------------------|------------------------|-------------------|-------------------|
-------------------|------------------------|-------------------|-------------------|
-------------------|-----------------6b-----|-------------------|-------------------|
-------------------|-----------6--8------8--|--L----------------|--L----------------|


  E  E  E  E   E  E  E   E     E  E   E  E   E   E  Q        E  E  E  E   E  E  E   E   
----------------------------|-----------------------------|----------------------------|
----------------------------|-----------------------------|----------------------------|
----------------------------|-----------------------------|----------------------------|
-----8--8------8--8------8--|--8------8------8------------|-----8--8------8--8------8--|
-----8--8--6b--8--8--6b--8--|--8--6b--8--6b--8--10--6~----|--L--8--8--6b--8--8--6b--8--|
----------------------------|-----------------------------|----------------------------|


                                Outro
                                                                                         PM     
  E  E   E  E   E   E   E   E      E   E   E    E  Q     E  E      E  E    Q      Q      E  E   
-------------------------------|--------------------------------|------------------------------|
-------------------------------|--------------------------------|------------------------------|
-------------------------------|----------------------------8b--|--L--8b-----------------------|
--8------8------8--10--13--13--|---L--15--15S--10--8----10------|---------10~----10~----10--8--|
--8--6b--8--6b--8--10--13--13--|---L--15--15S--10--8----10------|---------------------------8--|
-------------------------------|--------------------------------|------------------------------|


  E   E   E  E  Q     E   E       E    E  E  E  E   E  E  E      E  E   E   E  Q      E  E   
------------------------------|-------------------------------|-----------------------------|
------------------------------|-------------------------------|-----------------------------|
----------------8b----8-------|-----------x--8----------------|----------------8b-----------|
--L--10--10--8-----------10~--|---L~--10--x--8----------------|-----8--10--10--------10--8--|
--L--10--10--8----------------|-----------------8p--6---------|-----8--10--10--------10--8--|
------------------------------|------------------------8--8~--|--L--------------------------|


  E   E   E   E  E  E    Q         E  E   Q    E  E   E  E     E   E  E  E  E  E  E    E     
-------------------------------|----------------------------|-------------------------------|
-------------------------------|----------------------------|-------------------------------|
-----------------8--8b---------|----------------------------|-------------------------------|
--L--10--10--10---------10~----|---L--8--10----8--8--10--8--|--L--10------------------------|
--L--10--10--10----------------|---------------------10--8--|--L--10-----6--8--8--6--<>8br--|
-------------------------------|----------------------------|---------8---------------------|


                                              PM                                            
  S  S E  E   E  Q     E  E     E   E   E  E  E  E    E   E      E  E   E  E   E  E  E  E   
-----------------------------|-------------------------------|-----------------------------|
-----------------------------|-------------------------------|-----------------------------|
-----------------------------|----------------8--8b----------|-----------------------8--8--|
----------8--10--8----10--8--|--L--10--10--8--8------10--10--|---L--8--10--8--10--8--------|
--Lp-3----8--10--8----10--8--|--L--10--10--8---------10--10--|---L--8--10--8--10--8--------|
-------8---------------------|-------------------------------|-----------------------------|


  E   E  E  E  E  E   Q         Q     Q     Q     E   E      E  E  E  E   E   E  E  E   
----------------------------|---------------------8-------|-----8--8--8-------8--8--8--|
----------------------------|--------------10b----8--10b--|--L--8--8--8--10b--8--8--8--|
--L-------------------------|--10~----8----10b-------10b--|--L-----------10b-----------|
-----10--8--8--L--8--10-----|--10~----8-------------------|----------------------------|
-----10--8--8--L--8--10~----|-----------------------------|----------------------------|
----------------------------|-----------------------------|----------------------------|


                                      |--3--|   |---3--|                                          
  E  E   Q     Q    Q       E   S  S  E  E  E   E  E   E  Q         E   E   E    E  Q     E  E    
--L--8---------8----8----|--8---------------8-------------------|--------------------------------|
--L--8--11b----8----8----|--8--10-11-10--8--8-------------------|--------------------------------|
--------10b--------------|-----10-11-10--8-----10--8--10--L~----|----------------------------8b--|
-------------------------|---------------------10--8--10--L~----|--13--15---Ls--10--8----10------|
-------------------------|--------------------------------------|--13--15---Ls--10--8----10------|
-------------------------|--------------------------------------|--------------------------------|


                        PM                                                                   
  E  E    Q      Q      E  E     E   E   E   E  Q      E  E     E   E    Q     Q      E  E   
------------------------------|------------------------------|------------------------------|
------------------------------|------------------------------|------------------------------|
--L--8b-----------------------|-----------------8b-----------|------------------------------|
---------10~----10~----10--8--|--L--10--10--10--------10--8--|--L--10-----------------------|
---------10-----10-----10--8--|--L--10--10--10--------10--8--|--L--10--<>8~----8~-----------|
------------------------------|------------------------------|-----------------------10--8--|


           PM                                                                        
  Q     E  E  Q     E  E     Q     E   E  E   E  E  E     Q     E   E  E   E  E  E   
--------------------------|----------------------------|----------------------------|
--------------------------|----------------------------|----------------------------|
--------------------------|----------------------------|----------------------------|
--------------------------|----------------------------|----------------------------|
--------------------3--3--|--Lb---------------3--3--3--|--Lb---------------3--3--3--|
--L~----6--3--6b----------|--------6p--3--6b-----------|--------6p--3--6b-----------|


                                                                   PM              
  E  E  E  E  E   E  E  E     E  E  E  E  E   E  E  E     E  E  E  E  E  E  E  E   
---------------------------|---------------------------|--------------------------|
---------------------------|---------------------------|--------------------------|
---------------------------|---------------------------|--------------------------|
---------------------------|---------------------------|--------------------------|
--L--3--3--3--L~-----3--3--|--L-----3--3--L~-----3--3--|--L-----3--3--L-----3--3--|
------------------6--------|-----6------------6--------|-----6-----------6--------|


  E  E  E  E  E   E  E  E     E  E  E  E  E   E  E  E   
---------------------------|---------------------------|
---------------------------|---------------------------|
---------------------------|---------------------------|
---------------------------|---------------------------|
--L-----3--3--L~-----3--3--|--L-----3--3--L~-----3--3--|
-----6------------6--------|-----6------------6--------|

   
  E  E  E  E  E   E  E  E                                          
-----------------------------------------------------------------||
-----------------------------------------------------------------||
-----------------------------------------------------------------||
-----------------------------------------------------------------||
--L-----3--3--L~-----3--3----------------------------------------||
-----6------------6----------------------------------------------||




Rhythm (left-right)

     W                   W                   W                   W                 
E||-------------------|-------------------|-------------------|-------------------|
B||-------------------|-------------------|-------------------|-------------------|
G||-------------------|-------------------|-------------------|-------------------|
D||-------------------|-------------------|-------------------|-------------------|
A||-------------------|-------------------|-------------------|-------------------|
E||-------------------|-------------------|-------------------|-------------------|


  H        E  E  E  E     E  E  E  E  Q    E  E     E  E  Q    H           E  E  E  E  Q    E  E   
-----------------------|-------------------------|----------------------|-------------------------|
-----------------------|-------------------------|----------------------|-------------------------|
-----------------------|-----5--L--5----------3--|--L--5--5----5--------|--L--5--L--5----------3--|
--------------3--5--5--|--L--3--L--3--3----L--3--|--L--5--5----5--------|--L--3--L--3--3----L--3--|
--------------------3--|--L-----------1----L--3--|--L--3--3----3--------|--L-----------1----L--3--|
-----------------------|-------------------------|----------------------|-------------------------|


  E  E  Q    H           E  E  E  E  Q    E  E     E  E  Q    H           E  E  E  E  Q    E  E   
----------------------|-------------------------|----------------------|-------------------------|
----------------------|-------------------------|----------------------|-------------------------|
--L--5--5----5--------|--L--5--L--5----------3--|--L--5--5----5--------|--L--5--L--5----------3--|
--L--5--5----5--------|--L--3--L--3--3----L--3--|--L--5--5----5--------|--L--3--L--3--3----L--3--|
--L--3--3----3--------|--L-----------1----L--3--|--L--3--3----3--------|--L-----------1----L--3--|
----------------------|-------------------------|----------------------|-------------------------|


  E  E  Q    H           E  E  E  E  Q    E  E     E  E  Q    H           E  E  E  E  Q    E  E   
----------------------|-------------------------|----------------------|-------------------------|
----------------------|-------------------------|----------------------|-------------------------|
--L--5--5----5--------|--L--5--L--5----------3--|--L--5--5----5--------|--L--5--L--5----------3--|
--L--5--5----5--------|--L--3--L--3--3----L--3--|--L--5--5----5--------|--L--3--L--3--3----L--3--|
--L--3--3----3--------|--L-----------1----L--3--|--L--3--3----3--------|--L-----------1----L--3--|
----------------------|-------------------------|----------------------|-------------------------|


  E  E  Q    H           E  E  E  E  Q    E  E     E  E  Q    H           E  E  E  E  Q    E  E   
----------------------|-------------------------|----------------------|-------------------------|
----------------------|-------------------------|----------------------|-------------------------|
--L--5--5----5--------|--L--5--L--5----------3--|--L--5--5----5--------|--L--5--L--5----------3--|
--L--5--5----5--------|--L--3--L--3--3----L--3--|--L--5--5----5--------|--L--3--L--3--3----L--3--|
--L--3--3----3--------|--L-----------1----L--3--|--L--3--3----3--------|--L-----------1----L--3--|
----------------------|-------------------------|----------------------|-------------------------|


  E  E  Q    H           H.           E  S S    W                   E  E  E  E  Q    E  E   
----------------------|----------------------|-------------------|-------------------------|
----------------------|----------------------|--6----------------|--L----------------------|
--L--5--5----5--------|--3------------L--x-x-|--5----------------|--L--5--L--5----------3--|
--L--5--5----5--------|--3------------L--x-x-|--3----------------|--L--3--L--3--3----L--3--|
--L--3--3----3--------|--1------------L------|-------------------|--------------1----L--3--|
----------------------|----------------------|-------------------|-------------------------|


  E  E  Q    H           H.           E  S S    W                   E  E  E  E  Q    E  E   
----------------------|----------------------|-------------------|-------------------------|
----------------------|----------------------|--6----------------|--L----------------------|
--L--5--5----5--------|--3------------L--x-x-|--5----------------|--L--5--L--5----------3--|
--L--5--5----5--------|--3------------L--x-x-|--3----------------|--L--3--L--3--3----L--3--|
--L--3--3----3--------|--1------------L------|-------------------|--------------1----L--3--|
----------------------|----------------------|-------------------|-------------------------|


  E  E  Q    H           E  E  E  E  Q    E  E     E  E  Q    H           E  E  E  E  Q    E  E   
----------------------|-------------------------|----------------------|-------------------------|
----------------------|-------------------------|----------------------|-------------------------|
--L--5--5----5--------|--L--5--L--5----------3--|--L--5--5----5--------|--L--5--L--5----------3--|
--L--5--5----5--------|--L--3--L--3--3----L--3--|--L--5--5----5--------|--L--3--L--3--3----L--3--|
--L--3--3----3--------|--L-----------1----L--3--|--L--3--3----3--------|--L-----------1----L--3--|
----------------------|-------------------------|----------------------|-------------------------|


  E  E  Q    H           E  E  E  E  Q    E  E     E  E  Q    H           E  E  E  E  Q    E  E   
----------------------|-------------------------|----------------------|-------------------------|
----------------------|-------------------------|----------------------|-------------------------|
--L--5--5----5--------|--L--5--L--5----------3--|--L--5--5----5--------|--L--5--L--5----------3--|
--L--5--5----5--------|--L--3--L--3--3----L--3--|--L--5--5----5--------|--L--3--L--3--3----L--3--|
--L--3--3----3--------|--L-----------1----L--3--|--L--3--3----3--------|--L-----------1----L--3--|
----------------------|-------------------------|----------------------|-------------------------|


  E  E  Q    H           H.           E  S S    W                   E  E  E  E  Q    E  E   
----------------------|----------------------|-------------------|-------------------------|
----------------------|----------------------|--6----------------|--L----------------------|
--L--5--5----5--------|--3------------L--x-x-|--5----------------|--L--5--L--5----------3--|
--L--5--5----5--------|--3------------L--x-x-|--3----------------|--L--3--L--3--3----L--3--|
--L--3--3----3--------|--1------------L------|-------------------|--------------1----L--3--|
----------------------|----------------------|-------------------|-------------------------|


  E  E  Q    H           H.           E  S S    W                   E  E  E  E  Q    E  E   
----------------------|----------------------|-------------------|-------------------------|
----------------------|----------------------|--6----------------|--L----------------------|
--L--5--5----5--------|--3------------L--x-x-|--5----------------|--L--5--L--5----------3--|
--L--5--5----5--------|--3------------L--x-x-|--3----------------|--L--3--L--3--3----L--3--|
--L--3--3----3--------|--1------------L------|-------------------|--------------1----L--3--|
----------------------|----------------------|-------------------|-------------------------|


  E  E  Q    H           W                   W                   Q.     E  H         
----------------------|-------------------|-------------------|---------------------|
----------------------|-------------------|-------------------|---------------------|
--L--5--5----5--------|-------------------|-------------------|--5------5--L--------|
--L--5--5----5--------|-------------------|-------------------|--5------5--L--------|
--L--3--3----3--------|-------------------|-------------------|--3------3--L--------|
----------------------|-------------------|-------------------|---------------------|


  H        E  E  E  E     Q.     E  H           H        E  E  E  E     Q.     E  H         
-----------------------|---------------------|-----------------------|---------------------|
-----------------------|---------------------|-----------------------|---------------------|
--L--------L--3--L--5--|--5------5--L--------|--L--------L--3--L--5--|--5------5--L--------|
--L--------L--3--L--5--|--5------5--L--------|--L--------L--3--L--5--|--5------5--L--------|
--L--------L--3--L--3--|--3------3--L--------|--L--------L--3--L--3--|--3------3--L--------|
-----------------------|---------------------|-----------------------|---------------------|


  H        E  E  E  E     Q.     E  H           W                   Q    E  E  Q.     S S  
-----------------------|---------------------|-------------------|------------------------|
-----------------------|---------------------|-------------------|------------------------|
--L--------L--3--L--5--|--5------5--L--------|--L----------------|--5----5--5--L------x-x-|
--L--------L--3--L--5--|--5------5--L--------|--L----------------|--3----3--3--L------x-x-|
--L--------L--3--L--3--|--3------3--L--------|--L----------------|------------------------|
-----------------------|---------------------|-------------------|------------------------|


  Q    E  E  E  E  E  E     Q.     E  H           H.           E  S S    Q    E  E  Q.     S S  
-------------------------|---------------------|----------------------|------------------------|
-------------------------|---------------------|----------------------|------------------------|
--7----7--7--L--7--7--x--|--5------5--L--------|--L------------L--x-x-|--5----5--5--L------x-x-|
--5----5--5--L--5--5--x--|--5------5--L--------|--L------------L--x-x-|--3----3--3--L------x-x-|
-------------------------|--3------3--L--------|--L------------L------|------------------------|
-------------------------|---------------------|----------------------|------------------------|


  Q    E  E  E  E  E  E     Q.     E  H           E  E  E  E  E  E  Q       W                 
-------------------------|---------------------|-------------------------|-------------------|
-------------------------|---------------------|-----5-----6--L-----6----|-------------------|
--7----7--7--L--7-----3--|--5------5--L--------|--L--5-----5--L-----5----|-------------------|
--5----5--5--L--5-----3--|--5------5--L--------|--L--5-----3--L--x--3----|-------------------|
-------------------------|--3------3--L--------|--L--3-------------------|-------------------|
-------------------------|---------------------|-------------------------|-------------------|


  W                   E  E  E  E  Q    E  E     E  E  Q    H           W                 
-------------------|-------------------------|----------------------|-------------------|
-------------------|-------------------------|----------------------|-------------------|
-------------------|-----5--L--5--3----L--3--|--L--5--5----5--------|-------------------|
-------------------|-----3--L--3--3----L--3--|--L--5--5----5--------|-------------------|
-------------------|--------------1----L--3--|--L--3--3----3--------|-------------------|
-------------------|-------------------------|----------------------|-------------------|


  W                   E  E  E  E  Q    E  E     E  E  Q    H           E  E  E  E  Q    E  E   
-------------------|-------------------------|----------------------|-------------------------|
-------------------|-------------------------|----------------------|-------------------------|
-------------------|-----5--L--5--3----L--3--|--L--5--5----5--------|-----5--L--5----------3--|
-------------------|-----3--L--3--3----L--3--|--L--5--5----5--------|--L--3--L--3--3----L--3--|
-------------------|--------------1----L--3--|--L--3--3----3--------|--L-----------1----L--3--|
-------------------|-------------------------|----------------------|-------------------------|


  E  E  Q    H           E  E  E  E  Q    E  E     E  E  Q    H           E  E  E  E  Q    E  E   
----------------------|-------------------------|----------------------|-------------------------|
----------------------|-------------------------|----------------------|-------------------------|
--L--5--5----5--------|-----5--L--5----------3--|--L--5--5----5--------|-----5--L--5----------3--|
--L--5--5----5--------|--L--3--L--3--3----L--3--|--L--5--5----5--------|--L--3--L--3--3----L--3--|
--L--3--3----3--------|--L-----------1----L--3--|--L--3--3----3--------|--L-----------1----L--3--|
----------------------|-------------------------|----------------------|-------------------------|


  E  E  Q    H           E  E  E  E  Q    E  E     E  E  Q    H           H.           E  S S  
----------------------|-------------------------|----------------------|----------------------|
----------------------|-------------------------|----------------------|----------------------|
--L--5--5----5--------|-----5--L--5----------3--|--L--5--5----5--------|--3------------L--x-x-|
--L--5--5----5--------|--L--3--L--3--3----L--3--|--L--5--5----5--------|--3------------L--x-x-|
--L--3--3----3--------|--L-----------1----L--3--|--L--3--3----3--------|--1------------L------|
----------------------|-------------------------|----------------------|----------------------|


  W                   E  E  E  E  Q    E  E     E  E  Q    H           H.           E  S S  
-------------------|-------------------------|----------------------|----------------------|
--6----------------|--L----------------------|----------------------|----------------------|
--5----------------|--L--5--L--5--3----3--3--|--L--5--5----5--------|--3------------L--x-x-|
--3----------------|--L--3--L--3--3----3--3--|--L--5--5----5--------|--3------------L--x-x-|
-------------------|-------------------------|--------3----3--------|--1------------L------|
-------------------|-------------------------|----------------------|----------------------|


  W                   E  E  E  E  Q    E  E     E  E  Q    H           W                 
-------------------|-------------------------|----------------------|-------------------|
--6----------------|--L----------------------|----------------------|-------------------|
--5----------------|--L--5--L--5--3----3--3--|--L--5--5----5--------|-------------------|
--3----------------|--L--3--L--3--3----3--3--|--L--5--5----5--------|-------------------|
-------------------|-------------------------|--------3----3--------|-------------------|
-------------------|-------------------------|----------------------|-------------------|


                                                              PM PM PM PM PM PM PM PM  
  W                   W                   W                   E  E  E  E  E  E  E  E   
-------------------|-------------------|-------------------|--------------------------|
-------------------|-------------------|-------------------|--------------------------|
-------------------|-------------------|-------------------|--------------------------|
-------------------|-------------------|-------------------|--5--5--5--5--5--5--5--5--|
-------------------|-------------------|-------------------|--3--3--3--3--3--3--3--3--|
-------------------|-------------------|-------------------|--------------------------|


  PM PM PM PM PM PM PM PM    PM PM PM PM PM PM PM PM    PM PM PM PM PM PM PM PM  
  E  E  E  E  E  E  E  E     E  E  E  E  E  E  E  E     E  E  E  E  E  E  E  E   
--------------------------|--------------------------|--------------------------|
--------------------------|--------------------------|--------------------------|
--------------------------|--------------------------|--------------------------|
--5--5--5--5--5--5--5--5--|--5--5--5--5--5--5--5--5--|--5--5--5--5--5--5--5--5--|
--3--3--3--3--3--3--3--3--|--3--3--3--3--3--3--3--3--|--3--3--3--3--3--3--3--3--|
--------------------------|--------------------------|--------------------------|


  PM PM PM PM PM PM PM PM    PM PM PM PM PM PM PM PM    PM PM PM PM PM PM PM PM  
  E  E  E  E  E  E  E  E     E  E  E  E  E  E  E  E     E  E  E  E  E  E  E  E   
--------------------------|--------------------------|--------------------------|
--------------------------|--------------------------|--------------------------|
--------------------------|--------------------------|--------------------------|
--5--5--5--5--5--5--5--5--|--5--5--5--5--5--5--5--5--|--5--5--5--5--5--5--5--5--|
--3--3--3--3--3--3--3--3--|--3--3--3--3--3--3--3--3--|--3--3--3--3--3--3--3--3--|
--------------------------|--------------------------|--------------------------|


  PM PM PM PM PM PM PM PM    PM PM PM PM PM PM PM PM    PM PM PM PM PM PM PM PM  
  E  E  E  E  E  E  E  E     E  E  E  E  E  E  E  E     E  E  E  E  E  E  E  E   
--------------------------|--------------------------|--------------------------|
--------------------------|--------------------------|--------------------------|
--------------------------|--------------------------|--------------------------|
--5--5--5--5--5--5--5--5--|--5--5--5--5--5--5--5--5--|--5--5--5--5--5--5--5--5--|
--3--3--3--3--3--3--3--3--|--3--3--3--3--3--3--3--3--|--3--3--3--3--3--3--3--3--|
--------------------------|--------------------------|--------------------------|


  PM PM PM PM PM PM PM PM    PM PM PM PM PM PM PM PM    PM PM PM PM PM PM PM PM  
  E  E  E  E  E  E  E  E     E  E  E  E  E  E  E  E     E  E  E  E  E  E  E  E   
--------------------------|--------------------------|--------------------------|
--------------------------|--------------------------|--------------------------|
--------------------------|--------------------------|--------------------------|
--5--5--5--5--5--5--5--5--|--5--5--5--5--5--5--5--5--|--5--5--5--5--5--5--5--5--|
--3--3--3--3--3--3--3--3--|--3--3--3--3--3--3--3--3--|--3--3--3--3--3--3--3--3--|
--------------------------|--------------------------|--------------------------|


  PM PM PM PM PM PM PM PM    PM PM PM PM PM PM PM PM    PM PM PM PM PM PM PM PM  
  E  E  E  E  E  E  E  E     E  E  E  E  E  E  E  E     E  E  E  E  E  E  E  E   
--------------------------|--------------------------|--------------------------|
--------------------------|--------------------------|--------------------------|
--------------------------|--------------------------|--------------------------|
--5--5--5--5--5--5--5--5--|--5--5--5--5--5--5--5--5--|--5--5--5--5--5--5--5--5--|
--3--3--3--3--3--3--3--3--|--3--3--3--3--3--3--3--3--|--3--3--3--3--3--3--3--3--|
--------------------------|--------------------------|--------------------------|


  PM PM PM PM PM PM PM PM    PM PM PM PM PM PM PM PM    PM PM PM PM PM PM PM PM  
  E  E  E  E  E  E  E  E     E  E  E  E  E  E  E  E     E  E  E  E  E  E  E  E   
--------------------------|--------------------------|--------------------------|
--------------------------|--------------------------|--------------------------|
--------------------------|--------------------------|--------------------------|
--5--5--5--5--5--5--5--5--|--5--5--5--5--5--5--5--5--|--5--5--5--5--5--5--5--5--|
--3--3--3--3--3--3--3--3--|--3--3--3--3--3--3--3--3--|--3--3--3--3--3--3--3--3--|
--------------------------|--------------------------|--------------------------|


  PM PM PM PM PM PM PM PM    PM PM PM PM PM PM PM PM    PM PM PM PM PM PM PM PM  
  E  E  E  E  E  E  E  E     E  E  E  E  E  E  E  E     E  E  E  E  E  E  E  E   
--------------------------|--------------------------|--------------------------|
--------------------------|--------------------------|--------------------------|
--------------------------|--------------------------|--------------------------|
--5--5--5--5--5--5--5--5--|--5--5--5--5--5--5--5--5--|--5--5--5--5--5--5--5--5--|
--3--3--3--3--3--3--3--3--|--3--3--3--3--3--3--3--3--|--3--3--3--3--3--3--3--3--|
--------------------------|--------------------------|--------------------------|


  PM PM PM PM PM PM PM PM    PM PM PM PM PM PM PM PM                                              
  E  E  E  E  E  E  E  E     E  E  E  E  E  E  E  E     W                   H        Q    E  E    
--------------------------|--------------------------|-------------------|-----------------------|
--------------------------|--------------------------|-------------------|-----------------------|
--------------------------|--------------------------|-------------------|----------------8--8~--|
--5--5--5--5--5--5--5--5--|--5--5--5--5--5--5--5--5--|-------------------|----------------8--8~--|
--3--3--3--3--3--3--3--3--|--3--3--3--3--3--3--3--3--|-------------------|-----------------------|
--------------------------|--------------------------|-------------------|-----------------------|


  E   E  E  E   E   E  E  E      E   E  E  E   E   E  E  E    
------------------------------|------------------------------|
------------------------------|------------------------------|
--L~-----8--8~--L~-----8--8~--|--L~-----8--8~--L~-----8--8~--|
--L~-----8--8~--L~-----8--8~--|--L~-----8--8~--L~-----8--8~--|
------------------------------|------------------------------|
------------------------------|------------------------------|

  
  E   E  E  E   E   E  E  E                                          
-------------------------------------------------------------------||
-------------------------------------------------------------------||
--L~-----8--8~--L~-----8--8~---------------------------------------||
--L~-----8--8~--L~-----8--8~---------------------------------------||
-------------------------------------------------------------------||
-------------------------------------------------------------------||




Rhythm - chunk

     W                   W                   W                   W                 
E||-------------------|-------------------|-------------------|-------------------|
B||-------------------|-------------------|-------------------|-------------------|
G||-------------------|-------------------|-------------------|-------------------|
D||-------------------|-------------------|-------------------|-------------------|
A||-------------------|-------------------|-------------------|-------------------|
E||-------------------|-------------------|-------------------|-------------------|


  W                   W                   W                   W                   W                 
-------------------|-------------------|-------------------|-------------------|-------------------|
-------------------|-------------------|-------------------|-------------------|-------------------|
-------------------|-------------------|-------------------|-------------------|-------------------|
-------------------|-------------------|-------------------|-------------------|-------------------|
-------------------|-------------------|-------------------|-------------------|-------------------|
-------------------|-------------------|-------------------|-------------------|-------------------|


  W                   W                   W                   W                 
-------------------|-------------------|-------------------|-------------------|
-------------------|-------------------|-------------------|-------------------|
-------------------|-------------------|-------------------|-------------------|
-------------------|-------------------|-------------------|-------------------|
-------------------|-------------------|-------------------|-------------------|
-------------------|-------------------|-------------------|-------------------|


  Q    E  E  H           Q    E  E  H           Q    E  E  H           Q    E  E  H         
----------------------|----------------------|----------------------|----------------------|
----------------------|----------------------|----------------------|----------------------|
--5-------5-----------|--5-------5-----------|--5-------3-----------|--5-------5-----------|
--5-------5-----------|--5-------5-----------|--5-------3-----------|--5-------5-----------|
--3-------3-----------|--3-------3-----------|--3-------3-----------|--3-------3-----------|
----------------------|----------------------|----------------------|----------------------|


  Q    E  E  H           Q    E  E  H           Q    E  E  H           Q    E  E  H         
----------------------|----------------------|----------------------|----------------------|
----------------------|----------------------|----------------------|----------------------|
--5-------3-----------|--5-------5-----------|--5-------3-----------|--5-------5-----------|
--5-------3-----------|--5-------5-----------|--5-------3-----------|--5-------5-----------|
--3-------3-----------|--3-------3-----------|--3-------3-----------|--3-------3-----------|
----------------------|----------------------|----------------------|----------------------|


  E  E  Q    Q    Q       E  E  Q    Q    Q       Q    E  E  H           Q    E  E  H         
-----------------------|-----------------------|----------------------|----------------------|
-----------------------|-----6-------6---------|----------------------|----------------------|
-----3-------3---------|-----5-------5---------|--5-------3-----------|--5-------5-----------|
-----3-------3---------|-----3-------3---------|--5-------3-----------|--5-------5-----------|
-----1-------1---------|-----------------------|--3-------3-----------|--3-------3-----------|
-----------------------|-----------------------|----------------------|----------------------|


  E  E  Q    Q    Q       E  E  Q    Q    Q       Q    E  E  H           Q    E  E  H         
-----------------------|-----------------------|----------------------|----------------------|
-----------------------|-----6-------6---------|----------------------|----------------------|
-----3-------3---------|-----5-------5---------|--5-------3-----------|--5-------5-----------|
-----3-------3---------|-----3-------3---------|--5-------3-----------|--5-------5-----------|
-----1-------1---------|-----------------------|--3-------3-----------|--3-------3-----------|
-----------------------|-----------------------|----------------------|----------------------|


  Q    E  E  H           Q    E  E  H           Q    E  E  H           Q    E  E  H         
----------------------|----------------------|----------------------|----------------------|
----------------------|----------------------|----------------------|----------------------|
--5-------3-----------|--5-------5-----------|--5-------3-----------|--5-------5-----------|
--5-------3-----------|--5-------5-----------|--5-------3-----------|--5-------5-----------|
--3-------3-----------|--3-------3-----------|--3-------3-----------|--3-------3-----------|
----------------------|----------------------|----------------------|----------------------|


  Q    E  E  H           Q    E  E  H           Q    E  E  H           Q    E  E  H         
----------------------|----------------------|----------------------|----------------------|
----------------------|----------------------|----------------------|----------------------|
--5-------3-----------|--5-------5-----------|--5-------3-----------|--5-------5-----------|
--5-------3-----------|--5-------5-----------|--5-------3-----------|--5-------5-----------|
--3-------3-----------|--3-------3-----------|--3-------3-----------|--3-------3-----------|
----------------------|----------------------|----------------------|----------------------|


  E  E  Q    Q    Q       E  E  Q    Q    Q       Q    E  E  H           Q    E  E  H         
-----------------------|-----------------------|----------------------|----------------------|
-----------------------|-----6-------6---------|----------------------|----------------------|
-----3-------3---------|-----5-------5---------|--5-------3-----------|--5-------5-----------|
-----3-------3---------|-----3-------3---------|--5-------3-----------|--5-------5-----------|
-----1-------1---------|-----------------------|--3-------3-----------|--3-------3-----------|
-----------------------|-----------------------|----------------------|----------------------|


  E  E  Q    Q    Q       E  E  Q    Q    Q       Q    E  E  H           Q    E  E  H         
-----------------------|-----------------------|----------------------|----------------------|
-----------------------|-----6-------6---------|----------------------|----------------------|
-----3-------3---------|-----5-------5---------|--5-------3-----------|--5-------5-----------|
-----3-------3---------|-----3-------3---------|--5-------3-----------|--5-------5-----------|
-----1-------1---------|-----------------------|--3-------3-----------|--3-------3-----------|
-----------------------|-----------------------|----------------------|----------------------|


                                          PM PM PM PM PM PM PM PM    PM PM PM PM PM PM PM PM  
  W                   W                   E  E  E  E  E  E  E  E     E  E  E  E  E  E  E  E   
-------------------|-------------------|--------------------------|--------------------------|
-------------------|-------------------|--------------------------|--------------------------|
-------------------|-------------------|--------------------------|--------------------------|
-------------------|-------------------|--5--5--5--5--5--5--5--5--|--5--5--5--5--5--5--5--5--|
-------------------|-------------------|--3--3--3--3--3--3--3--3--|--3--3--3--3--3--3--3--3--|
-------------------|-------------------|--------------------------|--------------------------|


  PM PM PM PM PM PM PM PM    PM PM PM PM PM PM PM PM    PM PM PM PM PM PM PM PM  
  E  E  E  E  E  E  E  E     E  E  E  E  E  E  E  E     E  E  E  E  E  E  E  E   
--------------------------|--------------------------|--------------------------|
--------------------------|--------------------------|--------------------------|
--------------------------|--------------------------|--------------------------|
--5--5--5--5--5--5--5--5--|--5--5--5--5--5--5--5--5--|--5--5--5--5--5--5--5--5--|
--3--3--3--3--3--3--3--3--|--3--3--3--3--3--3--3--3--|--3--3--3--3--3--3--3--3--|
--------------------------|--------------------------|--------------------------|


  PM PM PM PM PM PM PM PM    PM PM PM PM PM PM PM PM    PM PM PM PM PM PM PM PM  
  E  E  E  E  E  E  E  E     E  E  E  E  E  E  E  E     E  E  E  E  E  E  E  E   
--------------------------|--------------------------|--------------------------|
--------------------------|--------------------------|--------------------------|
--------------------------|--------------------------|--------------------------|
--5--5--5--5--5--5--5--5--|--5--5--5--5--5--5--5--5--|--5--5--5--5--5--5--5--5--|
--3--3--3--3--3--3--3--3--|--3--3--3--3--3--3--3--3--|--3--3--3--3--3--3--3--3--|
--------------------------|--------------------------|--------------------------|


  PM PM PM PM PM PM PM PM    PM PM PM PM PM PM PM PM    PM PM PM PM PM PM PM PM  
  E  E  E  E  E  E  E  E     E  E  E  E  E  E  E  E     E  E  E  E  E  E  E  E   
--------------------------|--------------------------|--------------------------|
--------------------------|--------------------------|--------------------------|
--------------------------|--------------------------|--------------------------|
--------------------------|--------------------------|--5--5--5--5--5--5--5--5--|
--3--3--3--3--3--3--3--3--|--5--5--5--5--5--5--5--5--|--3--3--3--3--3--3--3--3--|
--1--1--1--1--1--1--1--1--|--3--3--3--3--3--3--3--3--|--------------------------|


  PM PM PM PM PM PM PM PM    PM PM PM PM PM PM PM PM    PM PM PM PM PM PM PM PM  
  E  E  E  E  E  E  E  E     E  E  E  E  E  E  E  E     E  E  E  E  E  E  E  E   
--------------------------|--------------------------|--------------------------|
--------------------------|--------------------------|--------------------------|
--------------------------|--------------------------|--------------------------|
--5--5--5--5--5--5--5--5--|--------------------------|--------------------------|
--3--3--3--3--3--3--3--3--|--3--3--3--3--3--3--3--3--|--5--5--5--5--5--5--5--5--|
--------------------------|--1--1--1--1--1--1--1--1--|--3--3--3--3--3--3--3--3--|


  PM PM PM PM PM PM PM PM    PM PM PM PM PM PM PM PM    PM PM PM PM PM PM PM PM  
  E  E  E  E  E  E  E  E     E  E  E  E  E  E  E  E     E  E  E  E  E  E  E  E   
--------------------------|--------------------------|--------------------------|
--------------------------|--------------------------|--------------------------|
--------------------------|--------------------------|--------------------------|
--5--5--5--5--5--5--5--5--|--5--5--5--5--5--5--5--5--|--5--5--5--5--5--5--5--5--|
--3--3--3--3--3--3--3--3--|--3--3--3--3--3--3--3--3--|--3--3--3--3--3--3--3--3--|
--------------------------|--------------------------|--------------------------|


  PM PM PM PM PM PM PM PM                                            PM PM PM PM PM PM PM PM  
  E  E  E  E  E  E  E  E     W                   W                   E  E  E  E  E  E  E  E   
--------------------------|-------------------|-------------------|--------------------------|
--------------------------|-------------------|-------------------|--------------------------|
--------------------------|-------------------|-------------------|--------------------------|
--5--5--5--5--5--5--5--5--|-------------------|-------------------|--5--5--5--5--5--5--5--5--|
--3--3--3--3--3--3--3--3--|-------------------|-------------------|--3--3--3--3--3--3--3--3--|
--------------------------|-------------------|-------------------|--------------------------|


  W                   W                   W                   W                   W                 
-------------------|-------------------|-------------------|-------------------|-------------------|
-------------------|-------------------|-------------------|-------------------|-------------------|
-------------------|-------------------|-------------------|-------------------|-------------------|
-------------------|-------------------|-------------------|-------------------|-------------------|
-------------------|-------------------|-------------------|-------------------|-------------------|
-------------------|-------------------|-------------------|-------------------|-------------------|


  W                   W                   W                   W                   W                 
-------------------|-------------------|-------------------|-------------------|-------------------|
-------------------|-------------------|-------------------|-------------------|-------------------|
-------------------|-------------------|-------------------|-------------------|-------------------|
-------------------|-------------------|-------------------|-------------------|-------------------|
-------------------|-------------------|-------------------|-------------------|-------------------|
-------------------|-------------------|-------------------|-------------------|-------------------|


  W                   W                   W                   W                   W                 
-------------------|-------------------|-------------------|-------------------|-------------------|
-------------------|-------------------|-------------------|-------------------|-------------------|
-------------------|-------------------|-------------------|-------------------|-------------------|
-------------------|-------------------|-------------------|-------------------|-------------------|
-------------------|-------------------|-------------------|-------------------|-------------------|
-------------------|-------------------|-------------------|-------------------|-------------------|


  W                   W                   W                   W                   W                 
-------------------|-------------------|-------------------|-------------------|-------------------|
-------------------|-------------------|-------------------|-------------------|-------------------|
-------------------|-------------------|-------------------|-------------------|-------------------|
-------------------|-------------------|-------------------|-------------------|-------------------|
-------------------|-------------------|-------------------|-------------------|-------------------|
-------------------|-------------------|-------------------|-------------------|-------------------|


                                                              PM PM PM PM PM PM PM PM  
  W                   W                   W                   E  E  E  E  E  E  E  E   
-------------------|-------------------|-------------------|--------------------------|
-------------------|-------------------|-------------------|--------------------------|
-------------------|-------------------|-------------------|--------------------------|
-------------------|-------------------|-------------------|--5--5--5--5--5--5--5--5--|
-------------------|-------------------|-------------------|--3--3--3--3--3--3--3--3--|
-------------------|-------------------|-------------------|--------------------------|


  PM PM PM PM PM PM PM PM    PM PM PM PM PM PM PM PM    PM PM PM PM PM PM PM PM  
  E  E  E  E  E  E  E  E     E  E  E  E  E  E  E  E     E  E  E  E  E  E  E  E   
--------------------------|--------------------------|--------------------------|
--------------------------|--------------------------|--------------------------|
--------------------------|--------------------------|--------------------------|
--5--5--5--5--5--5--5--5--|--5--5--5--5--5--5--5--5--|--5--5--5--5--5--5--5--5--|
--3--3--3--3--3--3--3--3--|--3--3--3--3--3--3--3--3--|--3--3--3--3--3--3--3--3--|
--------------------------|--------------------------|--------------------------|


  PM PM PM PM PM PM PM PM    PM PM PM PM PM PM PM PM    PM PM PM PM PM PM PM PM  
  E  E  E  E  E  E  E  E     E  E  E  E  E  E  E  E     E  E  E  E  E  E  E  E   
--------------------------|--------------------------|--------------------------|
--------------------------|--------------------------|--------------------------|
--------------------------|--------------------------|--------------------------|
--5--5--5--5--5--5--5--5--|--5--5--5--5--5--5--5--5--|--5--5--5--5--5--5--5--5--|
--3--3--3--3--3--3--3--3--|--3--3--3--3--3--3--3--3--|--3--3--3--3--3--3--3--3--|
--------------------------|--------------------------|--------------------------|


  PM PM PM PM PM PM PM PM    PM PM PM PM PM PM PM PM    PM PM PM PM PM PM PM PM  
  E  E  E  E  E  E  E  E     E  E  E  E  E  E  E  E     E  E  E  E  E  E  E  E   
--------------------------|--------------------------|--------------------------|
--------------------------|--------------------------|--------------------------|
--------------------------|--------------------------|--------------------------|
--5--5--5--5--5--5--5--5--|--5--5--5--5--5--5--5--5--|--5--5--5--5--5--5--5--5--|
--3--3--3--3--3--3--3--3--|--3--3--3--3--3--3--3--3--|--3--3--3--3--3--3--3--3--|
--------------------------|--------------------------|--------------------------|


  PM PM PM PM PM PM PM PM    PM PM PM PM PM PM PM PM    PM PM PM PM PM PM PM PM  
  E  E  E  E  E  E  E  E     E  E  E  E  E  E  E  E     E  E  E  E  E  E  E  E   
--------------------------|--------------------------|--------------------------|
--------------------------|--------------------------|--------------------------|
--------------------------|--------------------------|--------------------------|
--5--5--5--5--5--5--5--5--|--5--5--5--5--5--5--5--5--|--5--5--5--5--5--5--5--5--|
--3--3--3--3--3--3--3--3--|--3--3--3--3--3--3--3--3--|--3--3--3--3--3--3--3--3--|
--------------------------|--------------------------|--------------------------|


  PM PM PM PM PM PM PM PM    PM PM PM PM PM PM PM PM    PM PM PM PM PM PM PM PM  
  E  E  E  E  E  E  E  E     E  E  E  E  E  E  E  E     E  E  E  E  E  E  E  E   
--------------------------|--------------------------|--------------------------|
--------------------------|--------------------------|--------------------------|
--------------------------|--------------------------|--------------------------|
--5--5--5--5--5--5--5--5--|--5--5--5--5--5--5--5--5--|--5--5--5--5--5--5--5--5--|
--3--3--3--3--3--3--3--3--|--3--3--3--3--3--3--3--3--|--3--3--3--3--3--3--3--3--|
--------------------------|--------------------------|--------------------------|


  PM PM PM PM PM PM PM PM    PM PM PM PM PM PM PM PM    PM PM PM PM PM PM PM PM  
  E  E  E  E  E  E  E  E     E  E  E  E  E  E  E  E     E  E  E  E  E  E  E  E   
--------------------------|--------------------------|--------------------------|
--------------------------|--------------------------|--------------------------|
--------------------------|--------------------------|--------------------------|
--5--5--5--5--5--5--5--5--|--5--5--5--5--5--5--5--5--|--5--5--5--5--5--5--5--5--|
--3--3--3--3--3--3--3--3--|--3--3--3--3--3--3--3--3--|--3--3--3--3--3--3--3--3--|
--------------------------|--------------------------|--------------------------|


  PM PM PM PM PM PM PM PM    PM PM PM PM PM PM PM PM    PM PM PM PM PM PM PM PM  
  E  E  E  E  E  E  E  E     E  E  E  E  E  E  E  E     E  E  E  E  E  E  E  E   
--------------------------|--------------------------|--------------------------|
--------------------------|--------------------------|--------------------------|
--------------------------|--------------------------|--------------------------|
--5--5--5--5--5--5--5--5--|--5--5--5--5--5--5--5--5--|--5--5--5--5--5--5--5--5--|
--3--3--3--3--3--3--3--3--|--3--3--3--3--3--3--3--3--|--3--3--3--3--3--3--3--3--|
--------------------------|--------------------------|--------------------------|


  PM PM PM PM PM PM PM PM    PM PM PM PM PM PM PM PM                                          
  E  E  E  E  E  E  E  E     E  E  E  E  E  E  E  E     W                   W                 
--------------------------|--------------------------|-------------------|-------------------|
--------------------------|--------------------------|-------------------|-------------------|
--------------------------|--------------------------|-------------------|-------------------|
--5--5--5--5--5--5--5--5--|--5--5--5--5--5--5--5--5--|-------------------|-------------------|
--3--3--3--3--3--3--3--3--|--3--3--3--3--3--3--3--3--|-------------------|-------------------|
--------------------------|--------------------------|-------------------|-------------------|



  W                   W                   W                                          
-------------------|-------------------|-------------------------------------------||
-------------------|-------------------|-------------------------------------------||
-------------------|-------------------|-------------------------------------------||
-------------------|-------------------|-------------------------------------------||
-------------------|-------------------|-------------------------------------------||
-------------------|-------------------|-------------------------------------------||




Duration Legend
---------------
W - whole
H - half
Q - quarter
E - 8th
S - 16th
T - 32nd
X - 64th
. - note dotted
|-n-|  - n-tuplets


Tablature Legend
----------------
L - tied note
x - dead note
g - grace note
(n) - ghost note
> - accentuded note
NH - natural harmonic
AH - artificial harmonic
TH - tapped harmonic
SH - semi harmonic
PH - pitch harmonic
h - hammer on
p - pull off
b - bend
br - bendRelease
pb - preBend
pbr - preBendRelease
brb - bendReleaseBend
\n/ - tremolo bar dip
\n - tremolo bar dive
-/n - tremolo bar Release up
/n\ - tremolo bar inverted dip
/n - tremolo bar return
-\n - tremolo bar Release down
S - shift slide
s - legato slide
/ -  slide into from below or out of upwards
\ -  slide into from above or out of downwards
~ - vibrato
W - wide vibrato
tr - trill
TP - tremolo picking
T - tapping
S - slap
P - pop
< - fade in
^ - brush up
v - brush down
comments
We did not receive enough feedback on this tab! Please rate:
print report bad tab
1 2 3 4 5
2 comments total.
0 reply
TexasFury wrote on November 12 2008, 11:15 am

This a 100% Certified Texas Tab™. Don't settle for less. Only a song by a Texas band that is tabbed by a Texas Shredder in The Great Republic of Texas can be labeled a Genuine Texas Tab™. SRV approved.

DON'T MESS WITH TEXAS

0 reply
tickler444 wrote on January 10 2009, 06:53 am

Good tab, but I wish the 2 tracks had been side by side (or on top of one another), as opposed to one after the other.

I want to post or [tab]
guest
You may want to rate the tab now too:
select rating
Please do not post tabs as comments. Select "correction" instead!