Oops, an error
Loading. Please wait.

Low Down In The Street Tab

ver1
ver1

Whole song

Interactive

More versions @911Tabs.com
869 views 12 this week
no commentswrite comment
1 2 3 4 5
please rate
Autoscroll
+/-
esc
set tempo
stop
Contributor
Difficulty
intermediate
Hey! There's an official Ultimate Guitar app which is ideal
for learning songs when you're away from computer. Get the app
WARNING: You are trying to view
                                    content from Ultimate-Guitar.com
                                    in an unauthorized application,
                                    which is prohibited.

                                    Please use an official Ultimate
                                    Guitar Tabs application for iPhone,
                                    iPad or Android to access legitimate
                                    chords, guitar, bass, and drum tabs
                                    from Ultimate-Guitar.com database.

                                    Type "ultimate guitar tabs" in Apple
                                    App Store's or Android Market's
                                    search to find the application.
------------------------------------------------------------------------------
                         Low Down in the Street- ZZTOP
                                  Deguello-1979
                   Words and Music by Gibbons,Hill and Beard 
------------------------------------------------------------------------------
Tabbed by: Duane Baldwin
E-mail:duaneandjulie@gmail.com

Tuning: Standard

Guitar I (Over driven)

                                                              Let Ring
e|------------------------|----------------------|------------------|
B|------------------------|----------------------|--x--8------------|
G|--8---------------------|----------------------|--x--8------9/12--|
D|-----10--8--------------|----------------------|--------10--------|
A|------------10--10--10--|--10--10------10--10--|------------------|
E|------------------------|----------------------|------------------|

  Let Ring ------------------|
e|---------------------------|--------------------------|
B|--11--11--------10--10/11--|--------------------------|
G|----------9/11------11/12--|--8-------10p8------------|
D|---------------------------|-----10---10p8---10-------|
A|---------------------------|-----10----------10--6h7--|
E|---------------------------|--------------------------|

e|----------------------------|--------------------------------|
B|----------------------------|--------------------------------|
G|--5---6/8--------10p8-------|--10---8--------10p8------------|
D|--5---6/8---10---10p8---10--|--10---8---10---10p8---10-------|
A|------------10----------10--|-----------10----------10--6h7--|
E|----------------------------|--------------------------------|

e|----------------------------|
B|----------------------------|
G|--5---6/8--------10p8-------|
D|--5---6/8---10---10p8---10--|
A|------------10----------10--|
E|----------------------------|

1st Verse

e|--------------------------------|----------------------------|
B|--------------------------------|----------------------------|
G|--10---8--------10p8------------|--5---6/8--------10p8-------|
D|--10---8---10---10p8---10-------|--5---6/8---10---10p8---10--|
A|-----------10----------10--6h7--|------------10----------10--|
E|--------------------------------|----------------------------|

e|--------------------------------|----------------------------|
B|--------------------------------|----------------------------|
G|--10---8--------10p8------------|--5---6/8--------10p8-------|
D|--10---8---10---10p8---10-------|--5---6/8---10---10p8---10--|
A|-----------10----------10--6h7--|------------10----------10--|
E|--------------------------------|----------------------------|

e|--------------------------------|----------------------------|
B|--------------------------------|----------------------------|
G|--10---8--------10p8------------|--5---6/8--------10p8-------|
D|--10---8---10---10p8---10-------|--5---6/8---10---10p8---10--|
A|-----------10----------10--6h7--|------------10----------10--|
E|--------------------------------|----------------------------|

e|--------------------------------|----------------------------|
B|--------------------------------|----------------------------|
G|--10---8--------10p8------------|--5---6/8--------10p8-------|
D|--10---8---10---10p8---10-------|--5---6/8---10---10p8---10--|
A|-----------10----------10--6h7--|------------10----------10--|
E|--------------------------------|----------------------------|

1st Chorus

e|---------------------------------------|-----------------------------------|
B|---------------------------------------|-----------------------------------|
G|--10-------------------------12--------|-----------10---------------------5|
D|--10----------------------8--12--------|--------6--10-----------10---------|
A|----------10--10--10--10---------8--8--|--8--8----------------------6--3---|
E|------11-------------------------------|---------------8--8--8-------------|

e|-------------------------------------|------------------------------------|
B|-------------------------------------|------------------------------------|
G|-----5-------------------------------|------------------------------------|
D|------------------------8------------|--------6---------------------------|
A|--3-----10--10--10--10-----10--8--8--|--8--8-----8--10--10--10--8---------|
E|-------------------------------------|-----------------------------11--8--|

  Let Ring ------------------------|
e|---------------------------------|---------------------------|
B|--------11--11--------10--10/11--|---------------------------|
G|--9/12----------9/11------11/12--|--8--------10p8------------|
D|---------------------------------|--8---10---10p8---10-------|
A|---------------------------------|------10----------10--6h7--|
E|---------------------------------|---------------------------|

e|----------------------------|
B|----------------------------|
G|--5---6/8--------10p8-------|
D|--5---6/8---10---10p8---10--|
A|------------10----------10--|
E|----------------------------|

2nd Verse

e|--------------------------------|----------------------------|
B|--------------------------------|----------------------------|
G|--10---8--------10p8------------|--5---6/8--------10p8-------|
D|--10---8---10---10p8---10-------|--5---6/8---10---10p8---10--|
A|-----------10----------10--6h7--|------------10----------10--|
E|--------------------------------|----------------------------|

e|--------------------------------|----------------------------|
B|--------------------------------|----------------------------|
G|--10---8--------10p8------------|--5---6/8--------10p8-------|
D|--10---8---10---10p8---10-------|--5---6/8---10---10p8---10--|
A|-----------10----------10--6h7--|------------10----------10--|
E|--------------------------------|----------------------------|

e|--------------------------------|----------------------------|
B|--------------------------------|----------------------------|
G|--10---8--------10p8------------|--5---6/8--------10p8-------|
D|--10---8---10---10p8---10-------|--5---6/8---10---10p8---10--|
A|-----------10----------10--6h7--|------------10----------10--|
E|--------------------------------|----------------------------|

e|--------------------------------|----------------------------|
B|--------------------------------|----------------------------|
G|--10---8--------10p8------------|--5---6/8--------10p8-------|
D|--10---8---10---10p8---10-------|--5---6/8---10---10p8---10--|
A|-----------10----------10--6h7--|------------10----------10--|
E|--------------------------------|----------------------------|

2nd Chorus

e|---------------------------------------|-----------------------------------|
B|---------------------------------------|-----------------------------------|
G|--10-------------------------12--------|-----------10---------------------5|
D|--10----------------------8--12--------|--------6--10-----------10---------|
A|----------10--10--10--10---------8--8--|--8--8----------------------6--3---|
E|------11-------------------------------|---------------8--8--8-------------|

e|-------------------------------------|------------------------------------|
B|-------------------------------------|------------------------------------|
G|-----5-------------------------------|------------------------------------|
D|------------------------8------------|--------6---------------------------|
A|--3-----10--10--10--10-----10--8--8--|--8--8-----8--10--10--10--8---------|
E|-------------------------------------|-----------------------------11--8--|

  Let Ring ------------------------|
e|---------------------------------|
B|--------11--11--------10--10/11--|
G|--9/12----------9/11------11/12--|
D|---------------------------------|
A|---------------------------------|
E|---------------------------------|

Bridge

e|--------------------------------|
B|--------------------------------|
G|--8---10-----10----8--10----10--|
D|--8---10-----10----8--10----10--|
A|--------------------------------|
E|--------------------------------|

Main Solo

e|-----------------------|--------------------------------|
B|-----------------------|--------------------------------|
G|-----------1-----------|--------------------------------|
D|-----1--3-----3--3--1--|------------1-----1--3qb--3--1--|
A|--3--------------------|--3------1-----3----------------|
E|-----------------------|------3-------------------------|

e|------------------------|---------------|----------------------------------|
B|------------------------|---------------|----------------------------------|
G|-------------3----------|---------------|-------3-------3-------3-------3--|
D|--3--1--3/5-----5\3--1--|--3--1---------|--3/5-----3/5-----3/5-----3/5-----|
A|------------------------|--------3---3--|----------------------------------|
E|------------------------|---------------|----------------------------------|

e|--------------------------------------------|
B|--------------------------------------------|
G|----------------3-------3-------3-----------|
D|--3--1-----3/5-----3/5-----3/5-----3--1-----|
A|--------3--------------------------------3--|
E|--------------------------------------------|

e|-------------------------------------|-------------------------------------|
B|-------------------------------------|-------------------------------------|
G|----------------------------------6--|-------------------------------------|
D|-----------------------4-----6/8-----|--8\6-----6--4-----6--4-----------4--|
A|-----------4--6--4--6-----6----------|-------6--6-----6--6-----6--4--6-----|
E|--6--4--6----------------------------|-------------------------------------|

e|----------------------|--------------------------------|
B|------4---------6-----|--4--6--4--------6--4-----------|
G|--6---4--6--4---6--4--|--4--6--4--4-----6--4-----------|
D|----------------------|--------------6--------6-----4--|
A|----------------------|--------------------------6-----|
E|----------------------|--------------------------------|

2nd Bridge

                                                    Let Ring
e|-----------------------------|---------------------------|
B|----------5/8-----------5/8--|----------x--8-------------|
G|-----------------------------|----------x--8-------9/12--|
D|-----------------------------|-----------------10--------|
A|-----------------------------|---------------------------|
E|--3---3---------3---3--------|--3---3--------------------|


  Let Ring ------------------|
e|---------------------------|-----------------------|
B|--11--11--------10--10/11--|------------x--x----x--|
G|----------9/11------11/12--|-------9\---x--x----x--|
D|---------------------------|--7+---9\---x--x----x--|
A|---------------------------|--7+-------------------|
E|---------------------------|-----------------------|

e|-----------------------------------------|----------------------------|
B|--x--x----x------------------------------|----------------------------|
G|--x--x----x----8---------10p8------------|--5---6/8--------10p8-------|
D|--x--x----x---------10---10p8---10-------|--5---6/8---10---10p8---10--|
A|--------------------10----------10--6h7--|------------10----------10--|
E|-----------------------------------------|----------------------------|

3rd Verse

e|--------------------------------|----------------------------|
B|--------------------------------|----------------------------|
G|--10---8--------10p8------------|--5---6/8--------10p8-------|
D|--10---8---10---10p8---10-------|--5---6/8---10---10p8---10--|
A|-----------10----------10--6h7--|------------10----------10--|
E|--------------------------------|----------------------------|

e|--------------------------------|----------------------------|
B|--------------------------------|----------------------------|
G|--10---8--------10p8------------|--5---6/8--------10p8-------|
D|--10---8---10---10p8---10-------|--5---6/8---10---10p8---10--|
A|-----------10----------10--6h7--|------------10----------10--|
E|--------------------------------|----------------------------|

e|--------------------------------|----------------------------|
B|--------------------------------|----------------------------|
G|--10---8--------10p8------------|--5---6/8--------10p8-------|
D|--10---8---10---10p8---10-------|--5---6/8---10---10p8---10--|
A|-----------10----------10--6h7--|------------10----------10--|
E|--------------------------------|----------------------------|

e|--------------------------------|----------------------------|
B|--------------------------------|----------------------------|
G|--10---8--------10p8------------|--5---6/8--------10p8-------|
D|--10---8---10---10p8---10-------|--5---6/8---10---10p8---10--|
A|-----------10----------10--6h7--|------------10----------10--|
E|--------------------------------|----------------------------|

3rd Chorus

e|---------------------------------------|-----------------------------------|
B|---------------------------------------|-----------------------------------|
G|--10-------------------------12--------|-----------10---------------------5|
D|--10----------------------8--12--------|--------6--10-----------10---------|
A|----------10--10--10--10---------8--8--|--8--8----------------------6--3---|
E|------11-------------------------------|---------------8--8--8-------------|

e|-------------------------------------|------------------------------------|
B|-------------------------------------|------------------------------------|
G|-----5-------------------------------|------------------------------------|
D|------------------------8------------|--------6---------------------------|
A|--3-----10--10--10--10-----10--8--8--|--8--8-----8--10--10--10--8---------|
E|-------------------------------------|-----------------------------11--8--|

  Let Ring ------------------------|
e|---------------------------------|---------------------------------|
B|--------11--11--------10--10/11--|---------------------------------|
G|--9/12----------9/11------11/12--|--8-------------8----------------|
D|---------------------------------|-----10--8---------10--8---------|
A|---------------------------------|------------10------------10-----|
E|---------------------------------|------------------------------8--|

Guitar II (Clean)

Intro

e|------------------------|----------------------|------------------|
B|------------------------|----------------------|--x--8------------|
G|--8---------------------|----------------------|--x--8------9/12--|
D|-----10--8--------------|----------------------|--------10--------|
A|------------10--10--10--|--10--10------10--10--|------------------|
E|------------------------|----------------------|------------------|

  Let Ring ------------------|
e|---------------------------|--------------------------|
B|--11--11--------10--10/11--|-----8--------------------|
G|----------9/11------11/12--|--8-------10p8------------|
D|---------------------------|----------10p8---10-------|
A|---------------------------|-----------------10--6h7--|
E|---------------------------|--------------------------|

e|----------------------------|-----------------------------------|
B|----------------------------|-----------8-----------------------|
G|--5---6/8--------10p8-------|--10---8-----------10p8------------|
D|--5---6/8---10---10p8---10--|--10----------10---10p8---10-------|
A|------------10----------10--|--------------10----------10--6h7--|
E|----------------------------|-----------------------------------|

e|----------------------------|
B|----------------------------|
G|--5---6/8--------10p8-------|
D|--5---6/8---10---10p8---10--|
A|------------10----------10--|
E|----------------------------|

1st Verse

e|----------------------------------|----------------------------|
B|-----------8----------------------|----------------------------|
G|--10---8----------10p8------------|--5---6/8--------10p8-------|
D|--10---------10---10p8---10-------|--5---6/8---10---10p8---10--|
A|-------------10----------10--6h7--|------------10----------10--|
E|----------------------------------|----------------------------|

e|----------------------------------|----------------------------|
B|----------8-----------------------|----------------------------|
G|--10---8----------10p8------------|--5---6/8--------10p8-------|
D|--10---------10---10p8---10-------|--5---6/8---10---10p8---10--|
A|-------------10----------10--6h7--|------------10----------10--|
E|----------------------------------|----------------------------|

e|----------------------------------|----------------------------|
B|-----------8----------------------|----------------------------|
G|--10---8----------10p8------------|--5---6/8--------10p8-------|
D|--10---------10---10p8---10-------|--5---6/8---10---10p8---10--|
A|-------------10----------10--6h7--|------------10----------10--|
E|----------------------------------|----------------------------|

e|----------------------------------|----------------------------|
B|----------8-----------------------|----------------------------|
G|--10---8----------10p8------------|--5---6/8--------10p8-------|
D|--10---------10---10p8---10-------|--5---6/8---10---10p8---10--|
A|-------------10----------10--6h7--|------------10----------10--|
E|----------------------------------|----------------------------|


1st Chorus

             P.M.----|    P.M.------------------|
e|---------------------------|----------------------------------------|
B|---------------------------|----------------------------------------|
G|--10--------------3--0-----|--------1----------------------------5--|
D|--10--------5--5--------3--|--3--3-----3--3--3-----------0h1--------|
A|--8------------------------|--------------------3--3--3-------3-----|
E|------6--3-----------------|----------------------------------------|

e|--------------------------------|------------------------------------|
B|--------------------------------|------------------------------------|
G|-----5--------------3-----------|--------1--------0--0---------0-----|
D|-----------5--5--5-----5--5--3--|--3--3-----3--3--0--0--5p3p0--1-----|
A|--3-----3-----------------------|---------------------------------3--|
E|--------------------------------|------------------------------------|

  Let Ring ------------------------|
e|---------------------------------|-----------------------------|
B|--------11--11--------10--10/11--|-----8-----------------------|
G|--9/12----------9/11------11/12--|--8----------10p8------------|
D|---------------------------------|--------10---10p8---10-------|
A|---------------------------------|--------10----------10--6h7--|
E|---------------------------------|-----------------------------|

e|----------------------------|
B|----------------------------|
G|--5---6/8--------10p8-------|
D|--5---6/8---10---10p8---10--|
A|------------10----------10--|
E|----------------------------|

2nd Verse

e|------------------------------|----------------------------|
B|------8-----------------------|----------------------------|
G|--10----------10p8------------|--5---6/8--------10p8-------|
D|--10-----10---10p8---10-------|--5---6/8---10---10p8---10--|
A|---------10----------10--6h7--|------------10----------10--|
E|------------------------------|----------------------------|

e|------------------------------|----------------------------|
B|------8-----------------------|----------------------------|
G|--10----------10p8------------|--5---6/8--------10p8-------|
D|--10-----10---10p8---10-------|--5---6/8---10---10p8---10--|
A|---------10----------10--6h7--|------------10----------10--|
E|------------------------------|----------------------------|

e|------------------------------|----------------------------|
B|------8-----------------------|----------------------------|
G|--10----------10p8------------|--5---6/8--------10p8-------|
D|--10-----10---10p8---10-------|--5---6/8---10---10p8---10--|
A|---------10----------10--6h7--|------------10----------10--|
E|------------------------------|----------------------------|

e|------------------------------|----------------------------|
B|------8-----------------------|----------------------------|
G|--10----------10p8------------|--5---6/8--------10p8-------|
D|--10-----10---10p8---10-------|--5---6/8---10---10p8---10--|
A|---------10----------10--6h7--|------------10----------10--|
E|------------------------------|----------------------------|
2nd Chorus


             P.M.----|       P.M.---------------|
e|------------------------------|-----------------1----------------------|
B|------------------------------|-----------------1----------------------|
G|--10--------------3-----------|--------1----------------------------5--|
D|--10-----------------5--5--3--|--3--3-----3--3-------------0h1---------|
A|--8---------------------------|--------------------3--3--3-------3-----|
E|------6--3--3--3--------------|----------------------------------------|

e|--------------------------3-----|------------------------------------|
B|--------------------------3-----|------------------------------------|
G|-----5--------------3-----------|--------1--------0--0---------0-----|
D|-----------5--5--5-----5-----3--|--3--3-----3--3--0--0--5p3p0--1-----|
A|--3-----3-----------------------|---------------------------------3--|
E|--------------------------------|------------------------------------|

Bridge

e|--------------------------------|
B|--------------------------------|
G|--8---10-----10----8--10----10--|
D|--8---10-----10----8--10----10--|
A|--------------------------------|
E|--------------------------------|

Main Solo

e|---------------------------------------|---------------------------------|
B|---------------------------------------|---------------------------------|
G|---------10--8--10----------10--8--10--|--------5--3--5---------5--3--5--|
D|-----10------8--10------10------8--10--|-----5-----3--5------5-----3--5--|
A|--8------------------8-----------------|--3---------------3--------------|
E|---------------------------------------|---------------------------------|

e|---------------------------------------|---------------------------------|
B|---------------------------------------|---------------------------------|
G|---------10--8--10----------10--8--10--|--------5--3--5---------5--3--5--|
D|-----10------8--10------10------8--10--|-----5-----3--5------5-----3--5--|
A|--8------------------8-----------------|--3---------------3--------------|
E|---------------------------------------|---------------------------------|

e|---------------------------------------|
B|---------------------------------------|
G|---------10--8--10----------10--8--10--|
D|-----10------8--10------10------8--10--|
A|--8------------------8-----------------|
E|---------------------------------------|

e|---------------------------------------|---------------------------------|
B|---------------------------------------|---------------------------------|
G|---------10--8--10----------10--8--10--|--------8--6--8---------8--6--8--|
D|-----10------8--10------10------8--10--|-----8-----6--8------8-----6--8--|
A|--8------------------8-----------------|--6---------------6--------------|
E|---------------------------------------|---------------------------------|

e|---------------------------------|-----------------------------------------|
B|---------------------------------|-----------------------------------------|
G|--------8--6--8---------8--6--8--|----------13--11--13-----------13--11--13|
D|-----8-----6--8------8-----6--8--|------13------11--13-------13------11--13|
A|--6---------------6--------------|--11-------------------11----------------|
E|---------------------------------|-----------------------------------------|

e|-------------------------------------------|
B|-------------------------------------------|
G|----------13--11--13-----------13--11--13--|
D|------13------11--13-------13------11--13--|
A|--11-------------------11------------------|
E|-------------------------------------------|

2nd Bridge

                                       Let Ring ----|
e|--------------------|------------------------------|
B|--------------------|------x--8------------11--11--|
G|--12--12----12--12--|--12--x--8------9/12----------|
D|--12--12----12--12--|--12--------10----------------|
A|--10--10----10--10--|--10--------------------------|
E|--------------------|------------------------------|


  Let Ring --------|
e|-------------------|-----------------------------|
B|--------10--10/11--|------8----------------------|
G|--9/11------11/12--|--8----------10p8------------|
D|-------------------|--------10---10p8---10-------|
A|-------------------|--------10----------10--6h7--|
E|-------------------|-----------------------------|

e|----------------------------|
B|----------------------------|
G|--5---6/8--------10p8-------|
D|--5---6/8---10---10p8---10--|
A|------------10----------10--|
E|----------------------------|

3rd Verse

e|----------------------------------|----------------------------|
B|-----------8----------------------|----------------------------|
G|--10---8----------10p8------------|--5---6/8--------10p8-------|
D|--10---------10---10p8---10-------|--5---6/8---10---10p8---10--|
A|-------------10----------10--6h7--|------------10----------10--|
E|----------------------------------|----------------------------|

e|----------------------------------|----------------------------|
B|----------8-----------------------|----------------------------|
G|--10---8----------10p8------------|--5---6/8--------10p8-------|
D|--10---------10---10p8---10-------|--5---6/8---10---10p8---10--|
A|-------------10----------10--6h7--|------------10----------10--|
E|----------------------------------|----------------------------|

e|----------------------------------|----------------------------|
B|-----------8----------------------|----------------------------|
G|--10---8----------10p8------------|--5---6/8--------10p8-------|
D|--10---------10---10p8---10-------|--5---6/8---10---10p8---10--|
A|-------------10----------10--6h7--|------------10----------10--|
E|----------------------------------|----------------------------|

e|----------------------------------|----------------------------|
B|----------8-----------------------|----------------------------|
G|--10---8----------10p8------------|--5---6/8--------10p8-------|
D|--10---------10---10p8---10-------|--5---6/8---10---10p8---10--|
A|-------------10----------10--6h7--|------------10----------10--|
E|----------------------------------|----------------------------|

3rd Chorus


             P.M.----|    P.M.------------------|
e|---------------------------|----------------------------------------|
B|---------------------------|----------------------------------------|
G|--10--------------3--0-----|--------1----------------------------5--|
D|--10--------5--5--------3--|--3--3-----3--3--3-----------0h1--------|
A|--8------------------------|--------------------3--3--3-------3-----|
E|------6--3-----------------|----------------------------------------|

e|--------------------------------|------------------------------------|
B|--------------------------------|------------------------------------|
G|-----5--------------3-----------|--------1--------0--0---------0-----|
D|-----------5--5--5-----5--5--3--|--3--3-----3--3--0--0--5p3p0--1-----|
A|--3-----3-----------------------|---------------------------------3--|
E|--------------------------------|------------------------------------|

  Let Ring ------------------------|
e|---------------------------------|---------------------------------|
B|--------11--11--------10--10/11--|---------------------------------|
G|--9/12----------9/11------11/12--|--8-------------8----------------|
D|---------------------------------|-----10--8---------10--8---------|
A|---------------------------------|------------10------------10-----|
E|---------------------------------|------------------------------8--|



************************************

| /   slide up
| \   slide down
| h   hammer-on
| p   pull-off
| ~   vibrato
| +   harmonic
| x   Mute note
| b   Bend
| pb  Pre-bend
| br  Bend release
| pbr Pre-bend release
| brb Bend release bend

************************************
comments
We did not receive enough feedback on this tab! Please rate:
print report bad tab
1 2 3 4 5
I want to post or [tab]
guest
You may want to rate the tab now too:
select rating
Please do not post tabs as comments. Select "correction" instead!