Oops, an error
Loading. Please wait.

Nasty Dogs And Funky Kings Tab

ver1
ver1

Whole song

Interactive

More versions @911Tabs.com
4,973 views 27 this week
no commentswrite comment
1 2 3 4 5
please rate
Autoscroll
+/-
esc
set tempo
stop
WARNING: You are trying to view
                                    content from Ultimate-Guitar.com
                                    in an unauthorized application,
                                    which is prohibited.

                                    Please use an official Ultimate
                                    Guitar Tabs application for iPhone,
                                    iPad or Android to access legitimate
                                    chords, guitar, bass, and drum tabs
                                    from Ultimate-Guitar.com database.

                                    Type "ultimate guitar tabs" in Apple
                                    App Store's or Android Market's
                                    search to find the application.
Band: ZZ Top
Song: Nasty Dogs and Funky Kings



Rhythm
                               
      S                                S S S S S S S S S Q     E.  S  
E||------------------------------------------------------------------|
B||------------------------------------------------------------------|
G||------------------------------------------------------------------|
D||--/7--------------------------------5---5-------------------------|
A||--------------------------------------7---7-6-5-------------------|
E||------------------------------------------------8---8-5~----L-----|


  S S S S S S S E.   E  E  S S    S  S S S S  S S E  S. Q    T S  
-------------------------------|---------------------------------|
-------------------------------|---------------------------------|
-------------------------------|-----2-----5p-2---2--2-----------|
----------------3~-------------|-----2-----5p-2---2--2-----------|
------0---3-2-0--------------0-|--3p-0------------0--0---------0-|
--0-3---3------------0--3--4---|----------------3----------------|


  S  S S S S  S S E  S. Q    T S    S  S S S S  S S E  S. Q    T S  
---------------------------------|---------------------------------|
---------------------------------|---------------------------------|
-----2-----5p-2---2--2-----------|-----2-----5p-2---2--2-----------|
-----2-----5p-2---2--2-----------|-----2-----5p-2---2--2-----------|
--3p-0------------0--0---------0-|--3p-0------------0--0---------0-|
----------------3----------------|----------------3----------------|


  S  S S S S  S S E  S. Q    T S    S  S S S S  S S E  S. Q    T S  
---------------------------------|---------------------------------|
---------------------------------|---------------------------------|
-----2-----5p-2---2--2-----------|-----2-----5p-2---2--2-----------|
-----2-----5p-2---2--2-----------|-----2-----5p-2---2--2-----------|
--3p-0------------0--0---------0-|--3p-0------------0--0---------0-|
----------------3----------------|----------------3----------------|


  S  S S S S  S S  E  S S S S S S S    Q     H         Q     
------------------------------------|-----------------------|
------------------------------------|-------/8~--------L----|
-----2-----5p-2---------------------|-------/9~--------L----|
-----2-----5p-2---/7--5---5-------2-|--L--------------------|
--3p-0------------------7---7-6-5-2-|--L--------------------|
----------------3-----------------0-|--L---------------L----|


  S  S S S S  S S E  S. Q    T S    S  S S S S  S S E  S. Q    T S  
---------------------------------|---------------------------------|
---------------------------------|---------------------------------|
-----2-----5p-2---2--2-----------|-----2-----5p-2---2--2-----------|
-----2-----5p-2---2--2-----------|-----2-----5p-2---2--2-----------|
--3p-0------------0--0---------0-|--3p-0------------0--0---------0-|
----------------3----------------|----------------3----------------|


   S S S S S S S S S S Q.         S S S S S S S E.   E  E  S S  
-------------------------------|-------------------------------|
-------------------------------|-------------------------------|
-------------------------------|-------------------------------|
--/7-5---5---------------------|----------------3~-------------|
-------7---7-6-5---------------|------0---3-2-0--------------0-|
-----------------8---8-5~------|--0-3---3------------0--3--4---|


  S  S S S S  S S E  S. Q    T S    S  S S S S  S S E  S. Q    T S  
---------------------------------|---------------------------------|
---------------------------------|---------------------------------|
-----2-----5p-2---2--2-----------|-----2-----5p-2---2--2-----------|
-----2-----5p-2---2--2-----------|-----2-----5p-2---2--2-----------|
--3p-0------------0--0---------0-|--3p-0------------0--0---------0-|
----------------3----------------|----------------3----------------|


  S  S S S S  S S E  S. Q    T S    S  S S S S  S S E  S. Q    T S  
---------------------------------|---------------------------------|
---------------------------------|---------------------------------|
-----2-----5p-2---2--2-----------|-----2-----5p-2---2--2-----------|
-----2-----5p-2---2--2-----------|-----2-----5p-2---2--2-----------|
--3p-0------------0--0---------0-|--3p-0------------0--0---------0-|
----------------3----------------|----------------3----------------|


  S  S S S S  S S E  S. Q    T S    S  S S S S  S S  E  S S S S S S S  
---------------------------------|------------------------------------|
---------------------------------|------------------------------------|
-----2-----5p-2---2--2-----------|-----2-----5p-2---------------------|
-----2-----5p-2---2--2-----------|-----2-----5p-2---/7--5---5-------2-|
--3p-0------------0--0---------0-|--3p-0------------------7---7-6-5-2-|
----------------3----------------|----------------3-----------------0-|


  Q     H         Q       S  S S S S  S S E  S. Q    T S  
-----------------------|---------------------------------|
-------/8~--------L----|---------------------------------|
-------/9~--------L----|-----2-----5p-2---2--2-----------|
--L--------------------|-----2-----5p-2---2--2-----------|
--L--------------------|--3p-0------------0--0---------0-|
--L---------------L----|----------------3----------------|


  S  S S S S  S S E  S. Q    T S     S S S S S S S S S S Q.       
---------------------------------|-------------------------------|
---------------------------------|-------------------------------|
-----2-----5p-2---2--2-----------|-------------------------------|
-----2-----5p-2---2--2-----------|--/7-5---5---------------------|
--3p-0------------0--0---------0-|-------7---7-6-5---------------|
----------------3----------------|-----------------8---8-5~------|


                A/5-                                           
                v                                              
  S S S S S S S H        S    S S S S S S S S S S S S S S S S  
----------------5--------L-|----------------------------------|
----------------4--------L-|----------------------------------|
----------------2--------L-|----------------------------------|
---------------------------|----------------------------------|
------0---3-2-0------------|--3-0---0-3-0---0-L-0-0-0-0-----0-|
--0-3---3------------------|------3-------3-------------0-3---|


  S S S S S S S S S S S S S S S S    S S S S S S S S S S S S S S S S  
----------------------------------|----------------------------------|
----------------------------------|----------------------------------|
----------------------------------|----------------------------------|
----------------------------------|----------------------------------|
--3-0---0-3-0---0-L-0-0-0-0-----0-|--3-0---0-3-0---0-L-0-0-0-0-----0-|
------3-------3-------------0-3---|------3-------3-------------0-3---|


  S S S S S S S S S S S S S S S S    S S S S S S S S S S S S S S S S  
----------------------------------|----------------------------------|
----------------------------------|----------------------------------|
----------------------------------|----------------------------------|
----------------------------------|----------------------------------|
--3-0---0-3-0---0-L-0-0-0-0-----0-|--3-0---0-3-0---0-L-0-0-0-0-----0-|
------3-------3-------------0-3---|------3-------3-------------0-3---|


  S S S S S S S S S S S S S S S S    S S S S S S S S S S S S S S S S  
----------------------------------|----------------------------------|
----------------------------------|----------------------------------|
----------------------------------|----------------------------------|
----------------------------------|----------------------------------|
--3-0---0-3-0---0-L-0-0-0-0-----0-|--3-0---0-3-0---0-L-0-0-0-0-----0-|
------3-------3-------------0-3---|------3-------3-------------0-3---|


  S S S S S S S S S S S S S S S S    S S S S S S S S  S S S S S S S S  
----------------------------------|-----------------------------------|
----------------------------------|-----------------------------------|
----------------------------------|-----------------------------------|
----------------------------------|----------------5h-7-5---5-------9-|
--3-0---0-3-0---0-L-0-0-0-0-----0-|--3-0---0-3-0----------7---7-6-5-7-|
------3-------3-------------0-3---|------3-------3------------------0-|


  H        H            S S S S S S S S S S S S S S S S  
---------------------|----------------------------------|
-----------0---------|----------------------------------|
-----------2b--------|----------------------------------|
--L------------------|----------------------------------|
--L------------------|--3-0---0-3-0---0-L-0-0-0-0-----0-|
--L------------------|------3-------3-------------0-3---|


  S S S S S S S S S S S S S S S S    S S S S S S S S S S S S S S S S  
----------------------------------|----------------------------------|
----------------------------------|----------------------------------|
----------------------------------|----------------------------------|
----------------------------------|----------------------------------|
--3-0---0-3-0---0-L-0-0-0-0-----0-|--3-0---0-3-0---0-L-0-0-0-0-----0-|
------3-------3-------------0-3---|------3-------3-------------0-3---|


  S S S S S S S S S S S S S S S S    S S S S S S S S S S S S S S S S  
----------------------------------|----------------------------------|
----------------------------------|----------------------------------|
----------------------------------|----------------------------------|
----------------------------------|----------------------------------|
--3-0---0-3-0---0-L-0-0-0-0-----0-|--3-0---0-3-0---0-L-0-0-0-0-----0-|
------3-------3-------------0-3---|------3-------3-------------0-3---|


  S S S S S S S S S S S S S S S S    S S S S S S S S S S S S S S S S  
----------------------------------|----------------------------------|
----------------------------------|----------------------------------|
----------------------------------|----------------------------------|
----------------------------------|----------------------------------|
--3-0---0-3-0---0-L-0-0-0-0-----0-|--3-0---0-3-0---0-L-0-0-0-0-----0-|
------3-------3-------------0-3---|------3-------3-------------0-3---|


  S S S S S S S S  S S S S S S S S    H        H          
-----------------------------------|---------------------|
-----------------------------------|-----------0---------|
-----------------------------------|-----------2b--------|
----------------5h-7-5---5-------9-|--L------------------|
--3-0---0-3-0----------7---7-6-5-7-|--L------------------|
------3-------3------------------0-|--L------------------|


  S S S S S S S S S S S S S S S S    S S S S S S S S S S S S S S S S  
----------------------------------|----------------------------------|
----------------------------------|----------------------------------|
----------------------------------|----------------------------------|
----------------------------------|----------------------------------|
--3-0---0-3-0---0-L-0-0-0-0-----0-|--3-0---0-3-0---0-L-0-0-0-0-----0-|
------3-------3-------------0-3---|------3-------3-------------0-3---|


  S S S S S S S S S S S S S S S S    S S S S S S S S S S S S S S S S  
----------------------------------|----------------------------------|
----------------------------------|----------------------------------|
----------------------------------|----------------------------------|
----------------------------------|----------------------------------|
--3-0---0-3-0---0-L-0-0-0-0-----0-|--3-0---0-3-0---0-L-0-0-0-0-----0-|
------3-------3-------------0-3---|------3-------3-------------0-3---|


  S S S S S S S S S S S S S S S S    S S S S S S S S S S S S S S S S  
----------------------------------|----------------------------------|
----------------------------------|----------------------------------|
----------------------------------|----------------------------------|
----------------------------------|----------------------------------|
--3-0---0-3-0---0-L-0-0-0-0-----0-|--3-0---0-3-0---0-L-0-0-0-0-----0-|
------3-------3-------------0-3---|------3-------3-------------0-3---|


  Original fades out.  Improvised ending.                                
  S                                       S S S S S S S S S S S S S S S  
------------------------------------------------------------------------|
------------------------------------------------------------------------|
------------------------------------------------------------------------|
------------------------------------------------------------------------|
--3---------------------------------------0---0-3-0---0-L-0-0-0-0-----0-|
--------------------------------------------3-------3-------------0-3---|


  W                  
-------------------||
-------------------||
-------------------||
-------------------||
-------------------||
-------------------||










Lead



       S S S S S S S  S S  S   Q     E.  S    S S S S S S S E.   E  E  S S  
E||----------------------------------------|-------------------------------|
B||--/10-8---8-----------------------------|-------------------------------|
G||--------9---9-8-7-----------------------|-------------------------------|
D||------------------10---10-<>7~----L-----|----------------3~-------------|
A||----------------------------------------|------0---3-2-0--------------0-|
E||----------------------------------------|--0-3---3------------0--3--4---|


  S S S S S  S S E  S. Q    T S     S S S S S  S S E  S. Q    T S   
---------------------------------|---------------------------------|
---------------------------------|---------------------------------|
----2-----5p-2---2--2------------|----2-----5p-2---2--2------------|
----2-----5p-2---2--2------------|----2-----5p-2---2--2------------|
----0------------0--0------------|----0------------0--0------------|
--3------------3--------------0h-|--3------------3--------------0h-|


  S S S S S  S S E  S. Q    T S     S S S S S  S S E  S. Q    T S   
---------------------------------|---------------------------------|
---------------------------------|---------------------------------|
----2-----5p-2---2--2------------|----2-----5p-2---2--2------------|
----2-----5p-2---2--2------------|----2-----5p-2---2--2------------|
----0------------0--0------------|----0------------0--0------------|
--3------------3--------------0h-|--3------------3--------------0h-|


  S S S S S  S S E  S. Q    T S     S S S S S  S S   E  S S S S S S S  
---------------------------------|------------------------------------|
---------------------------------|-----------------/10--8---8---------|
----2-----5p-2---2--2------------|----2-----5p-2----------9---9-8-7---|
----2-----5p-2---2--2------------|----2-----5p-2----------------------|
----0------------0--0------------|----0-------------------------------|
--3------------3--------------0h-|--3------------3------------------0-|


  Q    H         Q       S S S S S  S S E  S. Q    T S   
----------------------|---------------------------------|
----------------------|---------------------------------|
-------9---------L----|----2-----5p-2---2--2------------|
-------9---------L----|----2-----5p-2---2--2------------|
-------7---------L----|----0------------0--0------------|
--L----0---------L----|--3------------3--------------0h-|


  S S S S S  S S E  S. Q    T S      S S S S S S S  S S  S   Q     E   
--------------------------------|-------------------------------------|
--------------------------------|--/10-8---8--------------------------|
----2-----5p-2---2--2-----------|--------9---9-8-7--------------------|
----2-----5p-2---2--2-----------|------------------10---10-<>7~----L--|
----0------------0--0---------0-|-------------------------------------|
--3------------3----------------|-------------------------------------|


  S S S S S S S E.   E  E  S S    S S S S S  S S E  S. Q    T S   
-------------------------------|---------------------------------|
-------------------------------|---------------------------------|
-------------------------------|----2-----5p-2---2--2------------|
----------------3~-------------|----2-----5p-2---2--2------------|
------0---3-2-0--------------0-|----0------------0--0------------|
--0-3---3------------0--3--4---|--3------------3--------------0h-|


  S S S S S  S S E  S. Q    T S     S S S S S  S S E  S. Q    T S   
---------------------------------|---------------------------------|
---------------------------------|---------------------------------|
----2-----5p-2---2--2------------|----2-----5p-2---2--2------------|
----2-----5p-2---2--2------------|----2-----5p-2---2--2------------|
----0------------0--0------------|----0------------0--0------------|
--3------------3--------------0h-|--3------------3--------------0h-|


  S S S S S  S S E  S. Q    T S     S S S S S  S S E  S. Q    T S   
---------------------------------|---------------------------------|
---------------------------------|---------------------------------|
----2-----5p-2---2--2------------|----2-----5p-2---2--2------------|
----2-----5p-2---2--2------------|----2-----5p-2---2--2------------|
----0------------0--0------------|----0------------0--0------------|
--3------------3--------------0h-|--3------------3--------------0h-|


  S S S S S  S S   E  S S S S S S S    Q    H        Q     
------------------------------------|---------------------|
-----------------/10--8---8---------|---------------------|
----2-----5p-2----------9---9-8-7---|---------------------|
----2-----5p-2--------------------9-|--L----9--------L----|
----0-----------------------------7-|--L----7--------L----|
--3------------3------------------0-|--L----0--------L----|


  S S S S S  S S E  S. Q    T S     S S S S S  S S E  S. Q    T S   
---------------------------------|---------------------------------|
---------------------------------|---------------------------------|
----2-----5p-2---2--2------------|----2-----5p-2---2--2------------|
----2-----5p-2---2--2------------|----2-----5p-2---2--2------------|
----0------------0--0------------|----0------------0--0------------|
--3------------3--------------0h-|--3------------3--------------0h-|


    S S S S S S S  S S  S   Q     E     S S S S S S S H         S  
-------------------------------------|----------------------------|
--/10-8---8--------------------------|----------------------------|
--------9---9-8-7--------------------|----------------------------|
------------------10---10-<>7~----L--|----------------3~--------L-|
-------------------------------------|------0---3-2-0-------------|
-------------------------------------|--0-3---3-------------------|


  Q.       S Q.     S S S     S S S S E    S Q    E  S   S S  
--------------------------|----------------------------------|
--------------------------|--------------------------------8-|
--7br------5--------------|----------------------------7g9---|
-------------7------L-5-7-|--10-7-5-7------------------------|
--------------------------|-----------5br--3-----------------|
--------------------------|------------------5----L----------|


   S S S  S S S Q       S E.  S S     S S S S E    S Q    E  S S   S   
----------------------------------|-----------------------------------|
--10---8-10---8-------------------|-----------------------------------|
-----9------9---7br---------------|----------------------------5-<>7b-|
-----------------------10-7---5-7-|--10-7-5-7--------7----L-----------|
----------------------------------|-----------5br--3------------------|
----------------------------------|-----------------------------------|


      NH           NH                                                     
  S   E     E      E   S S S S E.  S  S    S S S S S S S  Q.      S S  S  
----------------------------------------|------5---8-5-------------------|
----------------------------------------|----5---5-----8-10~-----------8-|
--L-<>7b--<>7b~--<>7b--5-7-5-------4-/7-|--L------------------------7b---|
-------------------------------7--------|--------------------------------|
----------------------------------------|--------------------------------|
----------------------------------------|--------------------------------|


                                   3  3     3                
  Q.     S   Q.     E   S    S S S S. E.    S. Q.     S  E   
--------------------------|---------------------------------|
--L------8/-10------8--10-|----8----------------------------|
--------------------------|--9---9-7--7br---5---------------|
--------------------------|--------------------7------5h-7--|
--------------------------|---------------------------------|
--------------------------|---------------------------------|


  S S S S S S S   E  S S S S S S S    H        H          
-----------------------------------|---------------------|
--------------8h-10--8---8---------|-----------0---------|
-----------------------9---9-8-7---|-----------2b--------|
--5------------------------------9-|--L------------------|
----7-6-5------------------------7-|--L------------------|
----------8-5--------------------0-|--L------------------|


                          3  3  3                                               
  T  T. T  T. T  T. T  T. S. S. S. Q.     S S      S S S S S S S Q.     E    S  
----------------------------------------------|--------------------------------|
----------------------------------------------|-----------------------------10-|
-----------------------------0h-2-------------|-------------------------7b-----|
--0h-2--0h-2--0h-2--0h-2--2---------------5---|--5g7-5-----------7-------------|
-----------------------------------0--------7-|--------7-6-5-------------------|
----------------------------------------------|--------------8-5---------------|


   Q.     S S  Q.     S S     S S S E  S S Q.       E     S   
----------8-8-------------|----------------------------------|
---L----------10--------8-|--10---8--------------------------|
----------------------9---|-----8---7--5----------<>7b--<>7b-|
--------------------------|--------------7-7-----------------|
--------------------------|----------------------------------|
--------------------------|----------------------------------|


                        NH                                             
  S   E     E     E     E  S Q    S S    S S S S E    S Q.     E  S    
--------------------------------------|-------------------------------|
--------------------------------------|-------------------------------|
--L-<>7b--<>7b--<>7b--<>7--5----------|---------------------------7br-|
-----------------------------7--------|--5-7--------------------------|
----------------------------------5-7-|------5-7-5br--3---------------|
--------------------------------------|-----------------5-------------|


  3  3               3  3                  3  3                               
  S. S. S S S E  S   S. S. S S S E  S      S. S. S S S S S.  S.S S S S S S S  
----------------------------------------|------------------------------------|
----------------------------------------|------------------------------------|
--5-----7---5----7br-5-----7---5----7br-|--5-----7---5-----------------------|
-----7----7---7---------7----7---7------|-----7----7---7-5--/7-5---5-------2-|
----------------------------------------|------------------------7---7-6-5-2-|
----------------------------------------|----------------------------------0-|


  H        H            S S S S S S S S S S S S S S S S  
---------------------|----------------------------------|
-----------0---------|----------------------------------|
-----------2b--------|----------------------------------|
--L------------------|----------------------------------|
--L------------------|--3-0---0-3-0---0-L-0-0-0-0-----0-|
--L------------------|------3-------3-------------0-3---|


  S S S S S S S S S S S S S S S S    S S S S S S S S S S S S S S S S  
----------------------------------|----------------------------------|
----------------------------------|----------------------------------|
----------------------------------|----------------------------------|
----------------------------------|----------------------------------|
--3-0---0-3-0---0-L-0-0-0-0-----0-|--3-0---0-3-0---0-L-0-0-0-0-----0-|
------3-------3-------------0-3---|------3-------3-------------0-3---|


  S S S S S S S S S S S S S S S S    S S S S S S S S S S S S S S S S  
----------------------------------|----------------------------------|
----------------------------------|----------------------------------|
----------------------------------|----------------------------------|
----------------------------------|----------------------------------|
--3-0---0-3-0---0-L-0-0-0-0-----0-|--3-0---0-3-0---0-L-0-0-0-0-----0-|
------3-------3-------------0-3---|------3-------3-------------0-3---|


  S S S S S S S S S S S S S S S S  
----------------------------------|
----------------------------------|
----------------------------------|
----------------------------------|
--3-0---0-3-0---0-L-0-0-0-0-----0-|
------3-------3-------------0-3---|


  Original fades out.  Improvised ending.                                
  S                                       S S S S S S S S S S S S S S S  
------------------------------------------------------------------------|
------------------------------------------------------------------------|
------------------------------------------------------------------------|
------------------------------------------------------------------------|
--3---------------------------------------0---0-3-0---0-L-0-0-0-0-----0-|
--------------------------------------------3-------3-------------0-3---|


  W                  
-------------------||
-------------------||
-------------------||
-------------------||
-------------------||
-------------------||





Duration Legend
---------------
W - whole
H - half
Q - quarter
E - 8th
S - 16th
T - 32nd
X - 64th
. - note dotted
|-n-|  - n-tuplets


Tablature Legend
----------------
L - tied note
x - dead note
g - grace note
(n) - ghost note
> - accentuded note
NH - natural harmonic
AH - artificial harmonic
TH - tapped harmonic
SH - semi harmonic
PH - pitch harmonic
h - hammer on
p - pull off
b - bend
br - bendRelease
pb - preBend
pbr - preBendRelease
brb - bendReleaseBend
\n/ - tremolo bar dip
\n - tremolo bar dive
-/n - tremolo bar Release up
/n\ - tremolo bar inverted dip
/n - tremolo bar return
-\n - tremolo bar Release down
S - shift slide
s - legato slide
/ -  slide into from below or out of upwards
\ -  slide into from above or out of downwards
~ - vibrato
W - wide vibrato
tr - trill
TP - tremolo picking
T - tapping
S - slap
P - pop
< - fade in
^ - brush up
v - brush down
comments
We did not receive enough feedback on this tab! Please rate:
print report bad tab
1 2 3 4 5
I want to post or [tab]
guest
You may want to rate the tab now too:
select rating
Please do not post tabs as comments. Select "correction" instead!