Oops, an error
Loading. Please wait.

Stages Tab

ver1
ver1

Whole song

Interactive

More versions @911Tabs.com
2,601 views 3 this week
1 commentread comment
1 2 3 4 5
not so good
x 1
add to favorites launch autoscroll
font size
0
reset
Autoscroll
+/-
esc
set tempo
stop
WARNING: You are trying to view
                                    content from Ultimate-Guitar.com
                                    in an unauthorized application,
                                    which is prohibited.

                                    Please use an official Ultimate
                                    Guitar Tabs application for iPhone,
                                    iPad or Android to access legitimate
                                    chords, guitar, bass, and drum tabs
                                    from Ultimate-Guitar.com database.

                                    Type "ultimate guitar tabs" in Apple
                                    App Store's or Android Market's
                                    search to find the application.
Band: ZZ Top
Song: Stages
Album: After Burner


                                                                          
Rhythm Guitar (Standard Tuning)



     Q.     E  Q    Q       E  H        Q    E     Q.     E  Q    Q     
E||----------------------|----------------------|----------------------|
B||--6------5--L----6----|--L-------------------|--6------5--L----6----|
G||--5------5--L----5----|--L-------------------|--5------5--L----5----|
D||--5------5--L----5----|--L-------------------|--5------5--L----5----|
A||--3------3--L----3----|--L-------------------|--3------3--L----3----|
E||----------------------|----------------------|----------------------|


  E  H        Q    E     Q.     E  Q    Q       W                 
----------------------|----------------------|-------------------|
--L-------------------|--6------5--L----6----|-------------------|
--L-------------------|--5------5--L----5----|-------------------|
--L-------------------|--5------5--L----5----|-------------------|
--L-------------------|--3------3--L----3----|-------------------|
----------------------|----------------------|-------------------|


  W                   W                   E  E  Q    E  E  Q     
-------------------|-------------------|------------------------|
-------------------|-------------------|-----8-------7----------|
-------------------|-------------------|-----7-------7----------|
-------------------|-------------------|-----9-------7----------|
-------------------|-------------------|------------------------|
-------------------|-------------------|------------------------|


  E  Q    E  H           E  E  Q    E  E  Q       E  Q    E  H         
----------------------|------------------------|----------------------|
--7-------7--L--------|-----8-------7----------|--7-------7--L--------|
--7-------7--L--------|-----7-------7----------|--7-------7--L--------|
--7-------7--L--------|-----9-------7----------|--7-------7--L--------|
----------------------|------------------------|----------------------|
----------------------|------------------------|----------------------|


  E  E  Q    E  E  Q       E  Q    E  H           E  E  Q    E  E  Q     
------------------------|----------------------|------------------------|
-----8-------7----------|--7-------7--L--------|-----8-------7----------|
-----7-------7----------|--7-------7--L--------|-----7-------7----------|
-----9-------7----------|--7-------7--L--------|-----9-------7----------|
------------------------|----------------------|------------------------|
------------------------|----------------------|------------------------|


  E  Q    E  H           E  E  Q    E  E  Q       E  Q    E  H         
----------------------|------------------------|----------------------|
--7-------7--L--------|-----8-------7----------|--7-------7--L--------|
--7-------7--L--------|-----7-------7----------|--7-------7--L--------|
--7-------7--L--------|-----9-------7----------|--7-------7--L--------|
----------------------|------------------------|----------------------|
----------------------|------------------------|----------------------|


  E  E  Q    E  E  Q       E  Q    E  H           E  E  Q    E  E  Q     
------------------------|----------------------|------------------------|
-----8-------7----------|--7-------7--L--------|-----8-------7----------|
-----7-------7----------|--7-------7--L--------|-----7-------7----------|
-----9-------7----------|--7-------7--L--------|-----9-------7----------|
------------------------|----------------------|------------------------|
------------------------|----------------------|------------------------|


  E  Q    E  H           E  E  Q    E  E  Q       E  Q    E  H         
----------------------|------------------------|----------------------|
--7-------7--L--------|-----8-------7----------|--7-------7--L--------|
--7-------7--L--------|-----7-------7----------|--7-------7--L--------|
--7-------7--L--------|-----9-------7----------|--7-------7--L--------|
----------------------|------------------------|----------------------|
----------------------|------------------------|----------------------|


  Q.     E  Q    Q       W                   Q.     E  Q    Q     
----------------------|-------------------|----------------------|
--6------5--L----6----|--L----------------|--6------5--L----6----|
--5------5--L----5----|--L----------------|--5------5--L----5----|
--5------5--L----5----|--L----------------|--5------5--L----5----|
--3------3--L----3----|--L----------------|--3------3--L----3----|
----------------------|-------------------|----------------------|


  W                   W                   W                   W                 
-------------------|-------------------|-------------------|-------------------|
--L----------------|-------------------|-------------------|-------------------|
--L----------------|-------------------|-------------------|-------------------|
--L----------------|-------------------|-------------------|-------------------|
--L----------------|-------------------|-------------------|-------------------|
-------------------|-------------------|-------------------|-------------------|


  W                   E  E  Q    E  E  Q       E  Q    E  H         
-------------------|------------------------|----------------------|
-------------------|-----8-------7----------|--7-------7--L--------|
-------------------|-----7-------7----------|--7-------7--L--------|
-------------------|-----9-------7----------|--7-------7--L--------|
-------------------|------------------------|----------------------|
-------------------|------------------------|----------------------|


  E  E  Q    E  E  Q       E  Q    E  H           E  E  Q    E  E  Q     
------------------------|----------------------|------------------------|
-----8-------7----------|--7-------7--L--------|-----8-------7----------|
-----7-------7----------|--7-------7--L--------|-----7-------7----------|
-----9-------7----------|--7-------7--L--------|-----9-------7----------|
------------------------|----------------------|------------------------|
------------------------|----------------------|------------------------|


  E  Q    E  H           E  E  Q    E  E  Q       E  Q    E  H         
----------------------|------------------------|----------------------|
--7-------7--L--------|-----8-------7----------|--7-------7--L--------|
--7-------7--L--------|-----7-------7----------|--7-------7--L--------|
--7-------7--L--------|-----9-------7----------|--7-------7--L--------|
----------------------|------------------------|----------------------|
----------------------|------------------------|----------------------|


  E  E  Q    E  E  Q       E  Q    E  H           E  E  Q    E  E  Q     
------------------------|----------------------|------------------------|
-----8-------7----------|--7-------7--L--------|-----8-------7----------|
-----7-------7----------|--7-------7--L--------|-----7-------7----------|
-----9-------7----------|--7-------7--L--------|-----9-------7----------|
------------------------|----------------------|------------------------|
------------------------|----------------------|------------------------|


  E  Q    E  H           E  E  Q    E  E  Q       E  Q    E  H         
----------------------|------------------------|----------------------|
--7-------7--L--------|-----8-------7----------|--7-------7--L--------|
--7-------7--L--------|-----7-------7----------|--7-------7--L--------|
--7-------7--L--------|-----9-------7----------|--7-------7--L--------|
----------------------|------------------------|----------------------|
----------------------|------------------------|----------------------|


  E  E  Q    E  E  Q       E  Q    E  H           Q.     E  Q    Q     
------------------------|----------------------|----------------------|
-----8-------7----------|--7-------7--L--------|--6------5--L----6----|
-----7-------7----------|--7-------7--L--------|--5------5--L----5----|
-----9-------7----------|--7-------7--L--------|--5------5--L----5----|
------------------------|----------------------|--3------3--L----3----|
------------------------|----------------------|----------------------|


  W                   Q.     E  Q    Q       W                 
-------------------|----------------------|-------------------|
--L----------------|--6------5--L----6----|--L----------------|
--L----------------|--5------5--L----5----|--L----------------|
--L----------------|--5------5--L----5----|--L----------------|
--L----------------|--3------3--L----3----|--L----------------|
-------------------|----------------------|-------------------|


  W                   W                   W                   W                 
-------------------|-------------------|-------------------|-------------------|
-------------------|-------------------|-------------------|-------------------|
-------------------|-------------------|-------------------|-------------------|
-------------------|-------------------|-------------------|-------------------|
-------------------|-------------------|-------------------|-------------------|
-------------------|-------------------|-------------------|-------------------|


  E  E  E  E  H           E  E  E  E  H           E  E  E  E  H         
-----------------------|-----------------------|-----------------------|
--3--------3--L--------|--3--------3--L--------|--3--------3--L--------|
--2--------2--L--------|--2--------2--L--------|--2--------2--L--------|
--4--------4--L--------|--4--------4--L--------|--4--------4--L--------|
--2--------2--L--------|--2--------2--L--------|--2--------2--L--------|
-----------------------|-----------------------|-----------------------|


  E  E  E  E  H           E  E  E  E  H           E  E  E  E  H         
-----------------------|-----------------------|-----------------------|
--3--------3--L--------|--2--------2--L--------|--2--------2--L--------|
--2--------2--L--------|--2--------2--L--------|--2--------2--L--------|
--4--------4--L--------|--2--------2--L--------|--2--------2--L--------|
--2--------2--L--------|--0--------0--L--------|--0--------0--L--------|
-----------------------|-----------------------|-----------------------|


  E  E  E  E  H           E  E  E  E  H           E  E  E  E  H         
-----------------------|-----------------------|-----------------------|
--2--------2--L--------|--2--------2--L--------|--8--------8--L--------|
--2--------2--L--------|--2--------2--L--------|--7--------7--L--------|
--2--------2--L--------|--2--------2--L--------|--9--------9--L--------|
--0--------0--L--------|--0--------0--L--------|--7--------7--L--------|
-----------------------|-----------------------|-----------------------|


  E  E  E  E  H           E  E  E  E  H           E  E  E  E  H         
-----------------------|-----------------------|-----------------------|
--8--------8--L--------|--8--------8--L--------|--8--------8--L--------|
--7--------7--L--------|--7--------7--L--------|--7--------7--L--------|
--9--------9--L--------|--9--------9--L--------|--9--------9--L--------|
--7--------7--L--------|--7--------7--L--------|--7--------7--L--------|
-----------------------|-----------------------|-----------------------|


  E  E  E  E  H           E  E  E  E  H           E  E  E  E  H         
-----------------------|-----------------------|-----------------------|
--7--------7--L--------|--7--------7--L--------|--7--------7--L--------|
--7--------7--L--------|--7--------7--L--------|--7--------7--L--------|
--7--------7--L--------|--7--------7--L--------|--7--------7--L--------|
--5--------5--L--------|--5--------5--L--------|--5--------5--L--------|
-----------------------|-----------------------|-----------------------|


  W                   W                   H        Q.     S S  
-------------------|-------------------|----------------------|
--5----------------|-------------------|----------------------|
--5----------------|-------------------|----------------------|
--5----------------|--5----------------|--L--------L------5-5-|
--3----------------|--5----------------|--L---------------5-5-|
-------------------|--3----------------|--L---------------3-3-|


  W                   W                   E  E  Q    E  E  Q     
-------------------|-------------------|------------------------|
-------------------|-------------------|-----8-------7----------|
-------------------|-------------------|-----7-------7----------|
--5----------------|--L----------------|-----9-------7----------|
--5----------------|--L----------------|------------------------|
--3----------------|--L----------------|------------------------|


  E  Q    E  H           E  E  Q    E  E  Q       E  Q    E  H         
----------------------|------------------------|----------------------|
--7-------7--L--------|-----8-------7----------|--7-------7--L--------|
--7-------7--L--------|-----7-------7----------|--7-------7--L--------|
--7-------7--L--------|-----9-------7----------|--7-------7--L--------|
----------------------|------------------------|----------------------|
----------------------|------------------------|----------------------|


  E  E  Q    E  E  Q       E  Q    E  H           E  E  Q    E  E  Q     
------------------------|----------------------|------------------------|
-----8-------7----------|--7-------7--L--------|-----8-------7----------|
-----7-------7----------|--7-------7--L--------|-----7-------7----------|
-----9-------7----------|--7-------7--L--------|-----9-------7----------|
------------------------|----------------------|------------------------|
------------------------|----------------------|------------------------|


  E  Q    E  H           E  E  Q    E  E  Q       E  Q    E  H         
----------------------|------------------------|----------------------|
--7-------7--L--------|-----8-------7----------|--7-------7--L--------|
--7-------7--L--------|-----7-------7----------|--7-------7--L--------|
--7-------7--L--------|-----9-------7----------|--7-------7--L--------|
----------------------|------------------------|----------------------|
----------------------|------------------------|----------------------|


  E  E  Q    E  E  Q       E  Q    E  H           E  E  Q    E  E  Q     
------------------------|----------------------|------------------------|
-----8-------7----------|--7-------7--L--------|-----8-------7----------|
-----7-------7----------|--7-------7--L--------|-----7-------7----------|
-----9-------7----------|--7-------7--L--------|-----9-------7----------|
------------------------|----------------------|------------------------|
------------------------|----------------------|------------------------|


  E  Q    E  H           E  E  Q    E  E  Q       E  Q    E  H         
----------------------|------------------------|----------------------|
--7-------7--L--------|-----8-------7----------|--7-------7--L--------|
--7-------7--L--------|-----7-------7----------|--7-------7--L--------|
--7-------7--L--------|-----9-------7----------|--7-------7--L--------|
----------------------|------------------------|----------------------|
----------------------|------------------------|----------------------|


  Q.     E  Q    Q       W                   Q.     E  Q    Q     
----------------------|-------------------|----------------------|
--6------5--L----6----|--L----------------|--6------5--L----6----|
--5------5--L----5----|--L----------------|--5------5--L----5----|
--5------5--L----5----|--L----------------|--5------5--L----5----|
--3------3--L----3----|--L----------------|--3------3--L----3----|
----------------------|-------------------|----------------------|


  W                   W                   W                   W                 
-------------------|-------------------|-------------------|-------------------|
--L----------------|-------------------|-------------------|-------------------|
--L----------------|-------------------|-------------------|-------------------|
--L----------------|-------------------|-------------------|-------------------|
--L----------------|-------------------|-------------------|-------------------|
-------------------|-------------------|-------------------|-------------------|


  W                   Q.     E  Q    Q       W                 
-------------------|----------------------|-------------------|
-------------------|--6------5--L----6----|--L----------------|
-------------------|--5------5--L----5----|--L----------------|
-------------------|--5------5--L----5----|--L----------------|
-------------------|--3------3--L----3----|--L----------------|
-------------------|----------------------|-------------------|


  Q.     E  Q    Q       W                   Q.     E  Q    Q     
----------------------|-------------------|----------------------|
--6------5--L----6----|--L----------------|--6------5--L----6----|
--5------5--L----5----|--L----------------|--5------5--L----5----|
--5------5--L----5----|--L----------------|--5------5--L----5----|
--3------3--L----3----|--L----------------|--3------3--L----3----|
----------------------|-------------------|----------------------|


  H        Q.     E     W                   H        Q.     S S  
---------------------|-------------------|----------------------|
--L--------L---------|-------------------|----------------------|
--L--------L---------|-------------------|----------------------|
--L--------L------5--|--L----------------|--L--------L------5-5-|
--L--------L------5--|--L----------------|--L--------L------5-5-|
------------------3--|--L----------------|--L--------L------3-3-|


  W                   W                   Q.     E  Q    Q     
-------------------|-------------------|----------------------|
-------------------|-------------------|--6------5--L----6----|
-------------------|-------------------|--5------5--L----5----|
--5----------------|--L----------------|--5------5--L----5----|
--5----------------|--L----------------|--3------3--L----3----|
--3----------------|--L----------------|----------------------|


  W                   Q.     E  Q    Q       W                 
-------------------|----------------------|-------------------|
--L----------------|--6------5--L----6----|--L----------------|
--L----------------|--5------5--L----5----|--L----------------|
--L----------------|--5------5--L----5----|--L----------------|
--L----------------|--3------3--L----3----|--L----------------|
-------------------|----------------------|-------------------|


  Q.     E  Q    Q       H        Q.     E     W                 
----------------------|---------------------|-------------------|
--6------5--L----6----|--L--------L---------|-------------------|
--5------5--L----5----|--L--------L---------|-------------------|
--5------5--L----5----|--L--------L------5--|--L----------------|
--3------3--L----3----|--L--------L------5--|--L----------------|
----------------------|------------------3--|--L----------------|


  H        Q.     S S    W                   W                 
----------------------|-------------------|-------------------|
----------------------|-------------------|-------------------|
----------------------|-------------------|-------------------|
--L--------L------5-5-|--5----------------|--L----------------|
--L--------L------5-5-|--5----------------|--L----------------|
--L--------L------3-3-|--3----------------|--L----------------|


  Q.     E  Q    Q       W                   Q.     E  Q    Q     
----------------------|-------------------|----------------------|
--6------5--L----6----|--L----------------|--6------5--L----6----|
--5------5--L----5----|--L----------------|--5------5--L----5----|
--5------5--L----5----|--L----------------|--5------5--L----5----|
--3------3--L----3----|--L----------------|--3------3--L----3----|
----------------------|-------------------|----------------------|


  W                   Q.     E  Q    Q       H        Q.     E   
-------------------|----------------------|---------------------|
--L----------------|--6------5--L----6----|--L--------L---------|
--L----------------|--5------5--L----5----|--L--------L---------|
--L----------------|--5------5--L----5----|--L--------L------5--|
--L----------------|--3------3--L----3----|--L--------L------5--|
-------------------|----------------------|------------------3--|


  W                   H        Q.     S S    W                 
-------------------|----------------------|-------------------|
-------------------|----------------------|-------------------|
-------------------|----------------------|-------------------|
--L----------------|--L--------L------5-5-|--5----------------|
--L----------------|--L--------L------5-5-|--5----------------|
--L----------------|--L--------L------3-3-|--3----------------|


  W                   Q.     E  Q    Q       W                 
-------------------|----------------------|-------------------|
-------------------|--6------5--L----6----|--L----------------|
-------------------|--5------5--L----5----|--L----------------|
--L----------------|--5------5--L----5----|--L----------------|
--L----------------|--3------3--L----3----|--L----------------|
--L----------------|----------------------|-------------------|


  Q.     E  Q    Q      
----------------------||
--6------5--L----6----||
--5------5--L----5----||
--5------5--L----5----||
--3------3--L----3----||
----------------------||











Lead Guitar (Standard Tuning)



     Q.     E  Q    Q       E  Q.     Q    Q       Q.     E  Q    Q     
E||----------------------|----------------------|----------------------|
B||--6------5--L----6----|--L--5------3---------|--6------5--L----6----|
G||--5------5--L----5----|--L--------------5----|--5------5--L----5----|
D||--5------5--L----5----|--L-------------------|--5------5--L----5----|
A||--3------3--L----3----|--L-------------------|--3------3--L----3----|
E||----------------------|----------------------|----------------------|


  E  Q.     Q    Q       Q.     E  Q    Q       E  Q.     Q    Q     
----------------------|----------------------|----------------------|
--L--5------3---------|--6------5--L----6----|--L--5------3---------|
--L--------------5----|--5------5--L----5----|--L--------------5----|
--L-------------------|--5------5--L----5----|--L-------------------|
--L-------------------|--3------3--L----3----|--L-------------------|
----------------------|----------------------|----------------------|


  E  Q.     Q    E  E     W                   E  E  Q    E  E  Q     
-----------------------|-------------------|------------------------|
-----------------------|-------------------|-----8-------7----------|
-----------------------|-------------------|-----7-------7----------|
-----5------3-------5--|--L----------------|-----9-------7----------|
-----------------5-----|--L----------------|------------------------|
-----------------------|-------------------|------------------------|


  E  Q    E  H           E  E  Q    E  E  Q       E  Q    E  H         
----------------------|------------------------|----------------------|
--7-------7--L--------|-----8-------7----------|--7-------7--L--------|
--7-------7--L--------|-----7-------7----------|--7-------7--L--------|
--7-------7--L--------|-----9-------7----------|--7-------7--L--------|
----------------------|------------------------|----------------------|
----------------------|------------------------|----------------------|


  E  E  Q    E  E  Q       E  Q    E  H           E  E  Q    E  E  Q     
------------------------|----------------------|------------------------|
-----8-------7----------|--7-------7--L--------|-----8-------7----------|
-----7-------7----------|--7-------7--L--------|-----7-------7----------|
-----9-------7----------|--7-------7--L--------|-----9-------7----------|
------------------------|----------------------|------------------------|
------------------------|----------------------|------------------------|


  E  Q    E  H           E  E  Q    E  E  Q       E  Q    E  H         
----------------------|------------------------|----------------------|
--7-------7--L--------|-----8-------7----------|--7-------7--L--------|
--7-------7--L--------|-----7-------7----------|--7-------7--L--------|
--7-------7--L--------|-----9-------7----------|--7-------7--L--------|
----------------------|------------------------|----------------------|
----------------------|------------------------|----------------------|


  E  E  Q    E  E  Q       E  Q    E  H           E  E  Q    E  E  Q     
------------------------|----------------------|------------------------|
-----8-------7----------|--7-------7--L--------|-----8-------7----------|
-----7-------7----------|--7-------7--L--------|-----7-------7----------|
-----9-------7----------|--7-------7--L--------|-----9-------7----------|
------------------------|----------------------|------------------------|
------------------------|----------------------|------------------------|


  Q    H        E  E      E  Q      E    E  E  E  E   
-----------------------|-----------------------------|
-------------------7b--|--L--7br---------------------|
-----------------------|---------------<>9-----7-----|
-----------------------|-----------------------------|
-----------------------|-----------------------------|
-----------------------|-----------------------------|


    E  E  Q     Q.      E      Q.     E  Q    Q       W                 
----------------------------|----------------------|-------------------|
----------------------------|--6------5--L----6----|--L----------------|
--<>9-----9~----L~------9S--|--5------5--L----5----|--L----------------|
----------------------------|--5------5--L----5----|--L----------------|
----------------------------|--3------3--L----3----|--L----------------|
----------------------------|----------------------|-------------------|


  Q.     E  Q    Q       W                   E    Q.     Q.      E   
----------------------|-------------------|-------------------------|
--6------5--L----6----|--L----------------|-------------------------|
--5------5--L----5----|--L----------------|-------------------------|
--5------5--L----5----|--L----------------|--5--<>5------3b------5--|
--3------3--L----3----|--L----------------|-------------------------|
----------------------|-------------------|-------------------------|


  Q    Q       E  Q.        E    Q.     Q.      E     Q    Q       E  Q.      
-------------------------|-------------------------|-------------------------|
-------------------------|-------------------------|-------------------------|
-------3b----<>5---------|-------------------------|-------3b----<>5---------|
--L---------------5------|--L--<>5------3b------5--|--L---------------5------|
-------------------------|-------------------------|-------------------------|
-------------------------|-------------------------|-------------------------|


  E  E  Q    E  E  Q       E  Q    E  H           E  E  Q    E  E  Q     
------------------------|----------------------|------------------------|
-----8-------7----------|--7-------7--L--------|-----8-------7----------|
-----7-------7----------|--7-------7--L--------|-----7-------7----------|
-----9-------7----------|--7-------7--L--------|-----9-------7----------|
------------------------|----------------------|------------------------|
------------------------|----------------------|------------------------|


  E  Q    E  H           E  E  Q    E  E  Q       E  Q    E  H         
----------------------|------------------------|----------------------|
--7-------7--L--------|-----8-------7----------|--7-------7--L--------|
--7-------7--L--------|-----7-------7----------|--7-------7--L--------|
--7-------7--L--------|-----9-------7----------|--7-------7--L--------|
----------------------|------------------------|----------------------|
----------------------|------------------------|----------------------|


  E  E  Q    E  E  Q       E  Q    E  H           E  E  Q    E  E  Q     
------------------------|----------------------|------------------------|
-----8-------7----------|--7-------7--L--------|-----8-------7----------|
-----7-------7----------|--7-------7--L--------|-----7-------7----------|
-----9-------7----------|--7-------7--L--------|-----9-------7----------|
------------------------|----------------------|------------------------|
------------------------|----------------------|------------------------|


  E  Q    E  H           E  E  Q    E  E  Q       E  Q    E  H         
----------------------|------------------------|----------------------|
--7-------7--L--------|-----8-------7----------|--7-------7--L--------|
--7-------7--L--------|-----7-------7----------|--7-------7--L--------|
--7-------7--L--------|-----9-------7----------|--7-------7--L--------|
----------------------|------------------------|----------------------|
----------------------|------------------------|----------------------|


  E  E  Q    E  E  Q       Q    H        E  E      E  Q      E    E  E  E  E   
------------------------|-----------------------|-----------------------------|
-----8-------7----------|-------------------7b--|--L--7br---------------------|
-----7-------7----------|-----------------------|---------------<>9-----7-----|
-----9-------7----------|-----------------------|-----------------------------|
------------------------|-----------------------|-----------------------------|
------------------------|-----------------------|-----------------------------|


    E  E  Q     Q.      E      Q.     E  Q    Q       W                 
----------------------------|----------------------|-------------------|
----------------------------|--6------5--L----6----|--L----------------|
--<>9-----9~----L~------9S--|--5------5--L----5----|--L----------------|
----------------------------|--5------5--L----5----|--L----------------|
----------------------------|--3------3--L----3----|--L----------------|
----------------------------|----------------------|-------------------|


  Q.     E  Q    Q       W                   E    Q.     Q.      E   
----------------------|-------------------|-------------------------|
--6------5--L----6----|--L----------------|-------------------------|
--5------5--L----5----|--L----------------|-------------------------|
--5------5--L----5----|--L----------------|--5--<>5------3b------5--|
--3------3--L----3----|--L----------------|-------------------------|
----------------------|-------------------|-------------------------|


  Q    Q       E  Q.        E    Q.     Q.      E     Q    Q       E  Q.      
-------------------------|-------------------------|-------------------------|
-------------------------|-------------------------|-------------------------|
-------3b----<>5---------|-------------------------|-------3b----<>5---------|
--L---------------5------|--L--<>5------3b------5--|--L---------------5------|
-------------------------|-------------------------|-------------------------|
-------------------------|-------------------------|-------------------------|


     H.            E  E     E  E    H           Q       
-------------------------|-----------------------------|
-------------------------|-----------------------------|
--9g11~------------9--7--|--9--9b~--L~--------<>9br----|
-------------------------|-----------------------------|
-------------------------|-----------------------------|
-------------------------|-----------------------------|


  E    E  E  E  Q.      E     E  E  Q     Q.       E   
---------------------------|--------------------------|
---------------------------|--------------------------|
--7--<>9-----7-------------|--------------------------|
----------9-----9~------7--|--9-----9~----L~------11--|
---------------------------|-----9--------------------|
---------------------------|--------------------------|


  E  E  Q    E  E  E  E     E  E  E  E  E  E  E  E   
-------------------------|--------------------------|
-------------------------|--------------------------|
--------7----7--7--------|--------5--6--------------|
--7----------------7--7--|--L-----5--6-----7--7--7--|
-------------------------|-----0--------0-----------|
-------------------------|--------------------------|


  Q     E  E  E  E   E  E     E  E    E  E  S  S E   Q      
---------------------------|-------------------------------|
-----------7---------------|-------------------------------|
--5b----7--------5b--------|-------------------------------|
--------------7------7-----|--7-----<>5--5-----------------|
------------------------7--|-----7----------7S-5-3b--------|
---------------------------|-------------------------5~----|


  E  E  Q     Q    E  E      Q     E  E  Q     E  E   
--------------------------|--------------------------|
--------------------------|-----------8--------------|
--------7b----9-------7~--|--L~----9-----9~----9-----|
--------7b---------9------|-----------------------9--|
--------------------------|--------------------------|
--0--0--------------------|--------------------------|


  E  E  Q    Q       E  E     E  E  E   E  Q.       E   
---------------------------|---------------------------|
---------------------------|--------8b-----------------|
--9-----9----9~----<>7-----|--9---------9--9S~------6--|
-----9------------------9--|-----9---------------------|
---------------------------|---------------------------|
---------------------------|---------------------------|


  E  E  S S E  E  E  E    E     E.  S  E  E  E  E  E  E   
-----------------------------|---------------------------|
-----------------------------|---------------------------|
--7--7--L-7-7--7--7--7--<>7--|--L---7-10--7--7--7--7--7--|
--7--7--L-7-7--7--7--7--<>L--|--L---7-10--7--7--7--7--7--|
-----------------------------|---------------------------|
-----------------------------|---------------------------|


  E  E  E  E  E  E  E  E      Q    E  E  Q     E  E   
---------------------------|-------------------------|
---------------------------|-------------------------|
--9--7--7--9--7--7--7------|--5----5--5--------5--5--|
--9--7--7--9--7--7--7------|--5----5--5--8b----5--5--|
---------------------------|-------------------------|
-----------------------7b--|-------------------------|


  E  S S E  E  Q.      E     E  E    Q     E  Q.       
--------------------------|---------------------------|
--------------------------|---------------------------|
--------------------------|--------<>3b----5----------|
--5--5-5-5--5--3~------5--|--L----------------5~------|
--5-----------------------|-----5---------------------|
--------------------------|---------------------------|


  E     Q    E    Q.      E     E  E  E  E    E   E  Q      
-----------------------------|-----------------------------|
-----------------------------|-----------------------------|
-----------------------------|--------3--5--<>5b--3--------|
--L~--<>5-------<>3b------5--|--5--------------------5~----|
-------------5---------------|-----5-----------------------|
-----------------------------|-----------------------------|


  E  E  Q    E  E  Q       E  Q    E  H           E  E  Q    E  E  Q     
------------------------|----------------------|------------------------|
-----8-------7----------|--7-------7--L--------|-----8-------7----------|
-----7-------7----------|--7-------7--L--------|-----7-------7----------|
-----9-------7----------|--7-------7--L--------|-----9-------7----------|
------------------------|----------------------|------------------------|
------------------------|----------------------|------------------------|


  E  Q    E  H           E  E  Q    E  E  Q       E  Q    E  H         
----------------------|------------------------|----------------------|
--7-------7--L--------|-----8-------7----------|--7-------7--L--------|
--7-------7--L--------|-----7-------7----------|--7-------7--L--------|
--7-------7--L--------|-----9-------7----------|--7-------7--L--------|
----------------------|------------------------|----------------------|
----------------------|------------------------|----------------------|


  E  E  Q    E  E  Q       E  Q    E  H           E  E  Q    E  E  Q     
------------------------|----------------------|------------------------|
-----8-------7----------|--7-------7--L--------|-----8-------7----------|
-----7-------7----------|--7-------7--L--------|-----7-------7----------|
-----9-------7----------|--7-------7--L--------|-----9-------7----------|
------------------------|----------------------|------------------------|
------------------------|----------------------|------------------------|


  E  Q    E  H           E  E  Q    E  E  Q       E  Q    E  H         
----------------------|------------------------|----------------------|
--7-------7--L--------|-----8-------7----------|--7-------7--L--------|
--7-------7--L--------|-----7-------7----------|--7-------7--L--------|
--7-------7--L--------|-----9-------7----------|--7-------7--L--------|
----------------------|------------------------|----------------------|
----------------------|------------------------|----------------------|


  E  E  Q    E  E  Q       Q    H        E  E      E  Q      E    E  E  E  E   
------------------------|-----------------------|-----------------------------|
-----8-------7----------|-------------------7b--|--L--7br---------------------|
-----7-------7----------|-----------------------|---------------<>9-----7-----|
-----9-------7----------|-----------------------|-----------------------------|
------------------------|-----------------------|-----------------------------|
------------------------|-----------------------|-----------------------------|


    E  E  Q     Q.      E      Q.     E  Q    Q       W                 
----------------------------|----------------------|-------------------|
----------------------------|--6------5--L----6----|--L----------------|
--<>9-----9~----L~------9S--|--5------5--L----5----|--L----------------|
----------------------------|--5------5--L----5----|--L----------------|
----------------------------|--3------3--L----3----|--L----------------|
----------------------------|----------------------|-------------------|


  Q.     E  Q    Q       W                   E    Q.     Q.      E   
----------------------|-------------------|-------------------------|
--6------5--L----6----|--L----------------|-------------------------|
--5------5--L----5----|--L----------------|-------------------------|
--5------5--L----5----|--L----------------|--5--<>5------3b------5--|
--3------3--L----3----|--L----------------|-------------------------|
----------------------|-------------------|-------------------------|


  Q    Q       E  Q.        E    Q.     Q.      E     Q    Q       E  Q.      
-------------------------|-------------------------|-------------------------|
-------------------------|-------------------------|-------------------------|
-------3b----<>5---------|-------------------------|-------3b----<>5---------|
--L---------------5------|--L--<>5------3b------5--|--L---------------5------|
-------------------------|-------------------------|-------------------------|
-------------------------|-------------------------|-------------------------|


  H        Q     E    E       W                    E  E  Q    H         
--------------------------|---------------------|----------------------|
--------------------------|---------------------|----------------------|
----------------10S--12~--|---L~----------------|--L-------------------|
--------------------------|---------------------|----------------------|
--------------------------|---------------------|----------------------|
--------------------------|---------------------|----------------------|


   E    E   E   E  H           W                   H          E  E  E  E    
----------------------------|-------------------|--------------------------|
-----------11---------------|-------------------|--6br--------L--3---------|
--10S--12------12--L--------|--L----------------|-------------------5--3b--|
----------------------------|-------------------|--------------------------|
----------------------------|-------------------|--------------------------|
----------------------------|-------------------|--------------------------|


  E    Q.       Q.     E      Q     Q     E  E  E  S S  
---------------------------|---------------------------|
---------------------------|---------------------------|
--5-----------<>2----------|--------3b----5------------|
-----<>5---------------5~--|--L~-------------5--5--5-5-|
---------------------------|---------------------------|
---------------------------|---------------------------|


  E  Q.      Q.      E      Q     Q       E  Q.         Q.     E  H         
-------------------------|---------------------------|---------------------|
-------------------------|---------------------------|---------------------|
-------------------------|--------3b----<>5----------|---------------------|
--5--5~------3b------5~--|--L~---------------5~------|--L------------------|
-------------------------|---------------------------|---------------------|
-------------------------|---------------------------|---------------------|


   E    E   E  E   H            Q.      E  Q     E    E   
-----------------------------|---------------------------|
-----------11----------------|---------------------------|
--10S--12------0--12~--------|--L~--------------10S--12--|
-----------------------------|---------------------------|
-----------------------------|---------------------------|
-----------------------------|---------------------------|


   E   Q.        E  E    E  E      Q.      E  Q    E  E   
--------------------------------|---------------------6--|
--11----------------6-----------|------------------------|
------12~------5g7-----7g5--3~--|--L~--------------------|
--------------------------------|------------------------|
--------------------------------|------------------------|
--------------------------------|------------------------|


  E   E  E  E    E  E    E  E      E    Q.       Q     E  E    
--6b----------------------------|-----------------------------|
------8--L--6-------------------|-----------------------------|
---------7-----7g5--3--<>5--3b--|-----------------------------|
--------------------------------|--5--<>5------<>3b-------5~--|
--------------------------------|-----------------------------|
--------------------------------|-----------------------------|


  Q       Q       E  Q.         E   Q.       Q.      E   
-----------------------------|--------------------------|
-----------------------------|--------------------------|
--------<>3b----<>5----------|--------------------------|
--L~-----------------5~------|--L~--5------<>3b------5--|
-----------------------------|--------------------------|
-----------------------------|--------------------------|


  Q    Q       E  Q.         Q.      E  Q     E    E    
--------------------------|----------------------------|
--------------------------|----------------------------|
-------3b----<>5----------|------------------10S--12~--|
--L---------------5~------|--L~------------------------|
--------------------------|----------------------------|
--------------------------|----------------------------|


  H         Q      E  E     W                   E   E  E  E   H          
-------------------------|-------------------|---------6----------------|
-------------------------|-------------------|--6S--8-----8~--L~--------|
--L~--------L~----10-----|-------------------|--------------------------|
-------------------------|-------------------|--------------------------|
-------------------------|-------------------|--------------------------|
-------------------------|-------------------|--------------------------|


  H         H           E  H          E  E    E   
---------------------|---------------------------|
--L~-----------------|-----6br--------3----------|
---------------------|-------------------5--3g4--|
---------------------|---------------------------|
---------------------|---------------------------|
---------------------|---------------------------|


  E    Q.     Q     S   S E      Q     Q     E  Q.       
------------------------------|-------------------------|
------------------------------|-------------------------|
------------------------------|--------3b----5----------|
--5--<>5------3b----L---------|-----------------5~------|
----------------------<>5-5~--|--L~---------------------|
------------------------------|-------------------------|


  E   Q.      Q.      E      Q     Q     E  Q.         H         H         
--------------------------|-------------------------|---------------------|
--------------------------|-------------------------|---------------------|
--------------------------|--------3b----5----------|---------------------|
--L~--5~------3b------5~--|--L~-------------5~------|--L~-----------------|
--------------------------|-------------------------|---------------------|
--------------------------|-------------------------|---------------------|


  E    Q      E  Q     E  E     E  Q.     H          
-----------------6b----6-----|---------------------||
-----6g8----<>8-----------8--|--8------------------||
-----------------------------|---------------------||
-----------------------------|-----5---------------||
-----------------------------|---------------------||
-----------------------------|---------------------||





Duration Legend
---------------
W - whole
H - half
Q - quarter
E - 8th
S - 16th
T - 32nd
X - 64th
. - note dotted
|-n-|  - n-tuplets


Tablature Legend
----------------
L - tied note
x - dead note
g - grace note
(n) - ghost note
> - accentuded note
NH - natural harmonic
AH - artificial harmonic
TH - tapped harmonic
SH - semi harmonic
PH - pitch harmonic
h - hammer on
p - pull off
b - bend
br - bendRelease
pb - preBend
pbr - preBendRelease
brb - bendReleaseBend
\n/ - tremolo bar dip
\n - tremolo bar dive
-/n - tremolo bar Release up
/n\ - tremolo bar inverted dip
/n - tremolo bar return
-\n - tremolo bar Release down
S - shift slide
s - legato slide
/ -  slide into from below or out of upwards
\ -  slide into from above or out of downwards
~ - vibrato
W - wide vibrato
tr - trill
TP - tremolo picking
T - tapping
S - slap
P - pop
< - fade in
^ - brush up
v - brush down
comments
We did not receive enough feedback on this tab! Please rate:
print report bad tab
1 2 3 4 5
1 comment total.
0 reply
SchecterMan71 wrote on August 14 2008, 09:07 am

Extremely confusing and long

I want to post or [tab]
guest
You may want to rate the tab now too:
select rating
Please do not post tabs as comments. Select "correction" instead!