Oops, an error
Loading. Please wait.

Thug Bass Tab

ver1
ver1

Solo

Whole song

More versions @911Tabs.com
1,118 views 18 this week
no commentswrite comment
1 2 3 4 5
please rate
Autoscroll
+/-
esc
set tempo
stop
Contributor
Difficulty
Tuning
intermediate
D A D G B E
Hey! There's an official Ultimate Guitar app which is ideal
for learning songs when you're away from computer. Get the app
WARNING: You are trying to view
                                    content from Ultimate-Guitar.com
                                    in an unauthorized application,
                                    which is prohibited.

                                    Please use an official Ultimate
                                    Guitar Tabs application for iPhone,
                                    iPad or Android to access legitimate
                                    chords, guitar, bass, and drum tabs
                                    from Ultimate-Guitar.com database.

                                    Type "ultimate guitar tabs" in Apple
                                    App Store's or Android Market's
                                    search to find the application.
-------------------------------------------------------------------------------
			     THUG - ZZ Top
-------------------------------------------------------------------------------


Tabbed By : Isaias Garcia (TexasFury)

Tuning: Drop D 5-string



     W                   H        Q    E  E     W                 
G||-------------------|----------------------|-------------------|
D||-------------------|----------------------|-------------------|
A||-------------------|----------------------|-------------------|
D||-------------------|----------------0--0--|-------------------|
A||-------------------|----------------------|-------------------|


                P  P          P         P            P         P  P   
  H        Q    E  E     Q    Q    Q    Q       Q    Q    Q    E  E   
----------------------|----------------------|-----------------------|
----------------------|----------------------|-----------------------|
----------------------|----------------------|-----------------------|
----------------0--0--|-------0---------0----|-------0---------0--0--|
----------------------|----------------------|-----------------------|


                                                  Verse 1                   
       P         P            P         P  P           P         P     
  Q    Q    Q    Q       Q    Q    Q    E  E      Q    Q    Q    Q     
----------------------|-----------------------||----------------------|
----------------------|-----------------------||----------------------|
----------------------|-----------------------||----------------------|
-------0---------0----|-------0---------0--0--||-------0---------0----|
----------------------|-----------------------||----------------------|


       P         P  P          P         P            P         P  P   
  Q    Q    Q    E  E     Q    Q    Q    Q       Q    Q    Q    E  E   
-----------------------|----------------------|-----------------------|
-----------------------|----------------------|-----------------------|
-----------------------|----------------------|-----------------------|
-------0---------0--0--|-------0---------0----|-------0---------0--0--|
-----------------------|----------------------|-----------------------|


       P         P            P         P  P          P         P     
  Q    Q    Q    Q       Q    Q    Q    E  E     Q    Q    Q    Q     
----------------------|-----------------------|----------------------|
----------------------|-----------------------|----------------------|
----------------------|-----------------------|----------------------|
-------0---------0----|-------0---------0--0--|-------0---------0----|
----------------------|-----------------------|----------------------|


                           Breakdown 1                                                 
       P         P  P                                  P    P   P   P    P   
  Q    Q    Q    E  E      E  E  S E.  E.  S Q       E  E  S E.  E.  S E  E   
-----------------------||-------------------------|--------------------------|
-----------------------||-------------------------|--------------------------|
-----------------------||-----3----3---3---5-L----|-----3----3---3---3-------|
-------0---------0--0--||-------------------------|-----------------------3--|
-----------------------||-------------------------|--------------------------|


     P    P   P   P           P  P  P   P  P   P   P     
  E  E  S E.  E.  S S S E     E  E  E   E  E.  S S S E   
---------------------------|----------------------------|
---------------------------|----------------------------|
-----3----3---3---3---3----|----------------------------|
------------------------5--|--3--5--5b--3--5---5---5-3--|
---------------------------|----------------------------|


     P    P    P   P     P         P    P    P   P        
  E  E  S S E  E.  S S   E.     E  E  S S E  E.  S S E.   
-----------------------------|---------------------------|
-----------------------------|---------------------------|
-----3--L-3----3---3---3g5---|-----3--L-3----3---3---3---|
-----------------------------|---------------------------|
-----------------------------|---------------------------|


                                                         Verse 2                   
     P     P   P   P   P                                      P         P     
  E  E   S E.  E.  S S E.     E  E  E  E  Q    Q         Q    Q    Q    Q     
---------------------------|-------------------------||----------------------|
---------------------------|--3----------------------||----------------------|
---------------------------|-----5--3--5-------------||----------------------|
-----5b----5---3---5---5---|--------------5----3/----||-------0---------0----|
---------------------------|-------------------------||----------------------|


       P         P  P          P         P            P         P  P   
  Q    Q    Q    E  E     Q    Q    Q    Q       Q    Q    Q    E  E   
-----------------------|----------------------|-----------------------|
-----------------------|----------------------|-----------------------|
-----------------------|----------------------|-----------------------|
-------0---------0--0--|-------0---------0----|-------0---------0--0--|
-----------------------|----------------------|-----------------------|


       P         P            P         P  P          P         P     
  Q    Q    Q    Q       Q    Q    Q    E  E     Q    Q    Q    Q     
----------------------|-----------------------|----------------------|
----------------------|-----------------------|----------------------|
----------------------|-----------------------|----------------------|
-------0---------0----|-------0---------0--0--|-------0---------0----|
----------------------|-----------------------|----------------------|


                           Breakdown 2                                                  
       P         P  P         P    P   P    P          P    P    P   P         
  Q    Q    Q    E  E      E  E  S E.  Q    Q       E  E  S S E  E.  S S S E   
-----------------------||------------------------|----------------------------|
-----------------------||------------------------|----------------------------|
-----------------------||-----3----3---3----5----|-----3--L-3----3---3---3----|
-------0---------0--0--||------------------------|-------------------------5--|
-----------------------||------------------------|----------------------------|


     P    P    P   P              P    P    P             
  E  E  S S E  E.  S S S E     E  E  S S E  E  E   E  E   
----------------------------|----------------------------|
----------------------------|----------------------------|
-----3--L-3----3---3---3----|-------------------------5--|
-------------------------5--|-----5----3----5------------|
----------------------------|------------------3s--5-----|


     P    P   P    P          P    P    P   P         
  E  E  S E.  Q    Q       E  E  S S E  E.  S S S E   
------------------------|----------------------------|
------------------------|----------------------------|
-----3----3---3----5----|-----3--L-3----3---3---3----|
------------------------|-------------------------5--|
------------------------|----------------------------|


                                                           Bridge 1               
     P    P    P    P          P  P  P  P  P  P  P  P                       
  E  E  S S E  E.   S S E.     E  E  E  E  E  E  E  E      W                 
----------------------------|--------------------------||-------------------|
----------------------------|--5--3--------------------||-------------------|
----------------------------|--------5--3-----3--------||-------------------|
-----3----5----5b---5---3---|--------------5-----5--3--||-------------------|
----------------------------|--------------------------||-------------------|


              P    P                                      P    P    
  H        E  E  S E.     W                   H        E  E  S E.   
-----------------------|-------------------|-----------------------|
-----------------------|-------------------|-----------------------|
-----------------------|-------------------|-----------------------|
-----------------------|-------------------|-----------------------|
--------------3----3---|-------------------|--------------3----3---|


              P    P                  P    P                  P    P    
  H        E  E  S E.     H        E  E  S E.     H        E  E  S E.   
-----------------------|-----------------------|-----------------------|
-----------------------|-----------------------|-----------------------|
-----------------------|-----------------------|-----------------------|
--------------5----5---|-----------------------|--------------5----5---|
-----------------------|--------------3----3---|-----------------------|


                           Verse 3                                           
              P    P            P         P            P         P  P   
  H        E  E  S E.      Q    Q    Q    Q       Q    Q    Q    E  E   
-----------------------||----------------------|-----------------------|
-----------------------||----------------------|-----------------------|
-----------------------||----------------------|-----------------------|
-----------------------||-------0---------0----|-------0---------0--0--|
--------------3----3---||----------------------|-----------------------|


       P         P  P          P         P  P          P         P  P   
  Q    Q    Q    E  E     Q    Q    Q    E  E     Q    Q    Q    E  E   
-----------------------|-----------------------|-----------------------|
-----------------------|-----------------------|-----------------------|
-----------------------|-----------------------|-----------------------|
-------0---------0--0--|-------0---------0--0--|-------0---------0--0--|
-----------------------|-----------------------|-----------------------|


       P         P  P          P         P  P          P       P     P   
  Q    Q    Q    E  E     Q    Q    Q    E  E     Q    Q    E  E  E  E   
-----------------------|-----------------------|------------------------||
-----------------------|-----------------------|------------------------||
-----------------------|-----------------------|------------------------||
-------0---------0--0--|-------0---------0--0--|-------0-------0-----0--||
-----------------------|-----------------------|------------------------||


  Breakdown 3                                                  
     P      P   P   P          P    P    P   P    P   
  E  Q.     E.  S S S E     E  E  S S E  E.  S E  E   
-------------------------|---------------------------|
-------------------------|---------------------------|
-----3------5---3---3----|-----3----3----3-----------|
-------------------------|---------------------------|
-------------------------|-------------------5-L--3--|


     P    P    P   P   P       P  P  P  P  P   P     P   
  E  E  S S E  E.  S S S E     E  E  E  E  E.  S  E  E   
----------------------------|---------------------------|
----------------------------|---------------------------|
-----3----3----3---3---3----|--5--3------------------5--|
----------------------------|--------5--3--5------------|
----------------------------|------------------3S-5-----|


     P    P    P   P    P       P   P    P   P    P       P   P    P   P    P   
  E  E  S S E  E.  S E  E     S E.  Q    E.  S E  E     S E.  Q    E.  S E  E   
---------------------------|-------------------------|-------------------------|
---------------------------|-------------------------|-------------------------|
---------------------------|-------------------------|-------------------------|
---------------3-----------|-------------3-----------|-------------3-----------|
-----3----5--------5----3--|----5---5--------5----3--|----5---5--------5-L--3--|


                                Bridge 2                                             
  P  P  P    P     P   P P      P    P       P    P      P    P       P    P    
  E  E  Q    S  E  S S S E      Q    Q    E  E  S E.     Q    Q    E  E  S E.   
----------------------------||------------------------|------------------------|
----------------------------||------------------------|------------------------|
--5--3-------------3---3----||------------------------|------------------------|
--------5----3s-5--------3--||--5----5-------5----5---|------------------------|
----------------------------||------------------------|--5----5-------3----3---|


     P    P      P    P      P    P       P    P         P    P      P    P    
  E  E  S E.  E  E  S E.     Q    Q    E  E  S E.     E  E  S E.  E  E  S E.   
--------------------------|------------------------|--------------------------|
--------------------------|------------------------|--------------------------|
--------------------------|------------------------|--------------------------|
-----5----5------3----3---|------------------------|-----5----5------5----5---|
--------------------------|--5----5-------3----3---|--------------------------|


     P  P  P     P    P         P    P      P     P   
  E  E  E  E  E  E  S E.     E  E  S E.  E  E  E  E   
--------------------------|--------------------------|
--------------------------|--------------------------|
--------------------------|--------------------------|
--------------------------|-----5----5------5-----5--|
-----5--5--3--L--3----3---|--------------------------|


                              Outro                                              
     P     P     P    P                                           P    P    
  E  E  E  E  E  E  S E.      E  E  Q    Q    E  E     H        E  E  S E.   
--------------------------||------------------------|-----------------------|
--------------------------||------------------------|-----------------------|
--------------------------||------------------------|--------------5----0---|
--------------------------||------------------------|-----------------------|
-----5-----3-----3----3---||-----5------------5--5--|-----------------------|


                                  P     P                       
  W                   H        E  E  E  E     W                 
-------------------|-----------------------|-------------------|
-------------------|--------------3-----3--|-------------------|
-------------------|-----------------------|-------------------|
-------------------|-----------------------|-------------------|
-------------------|-----------------------|-------------------|


              P     P        P       P  P                      P       P   
  H        E  E  E  E     E  E  Q    E  E  Q       H        E  E  E    E   
-----------------------|------------------------|--------------5-----5g7--|
--------------3-----3--|------------------------|-------------------------|
-----------------------|-----5-------5--5-------|-------------------------|
-----------------------|------------------------|-------------------------|
-----------------------|------------------------|-------------------------|


  E  E  Q    E  E  E  E     H        E  E  S E.     E  E  S E.  E.  S Q     
--L--5----------5--------|-----------------------|-------------------------|
-------------------------|--------------3----3---|-------------------------|
----------------------5--|-----------------------|-----5----5---5---5------|
-------------------------|-----------------------|-------------------------|
-------------------------|-----------------------|-------------------------|


  E  E  E  E  E     E  E     E     E  E  S E.  Q    Q     
--------------------------------|------------------------|
-----------------6g10-----6g10--|-----3----5---3---------|
--5--5-----5------5g9------5g9--|------------------------|
--------------------------------|------------------------|
--------------------------------|------------------------|


  Q    Q    E  E  S E.     E  E  Q    E  E  S E.   
------------------------|-------------------------|
---------------3----3---|-------------------------|
-------5----------------|-----5-------5--5----5---|
--0---------------------|-------------------------|
------------------------|-------------------------|


  E  E  E  E  E    E  E    E     E  E  S E.  E.  S E  E   
-----------------4g5-----4g5--|--------------------------|
------------------------------|--------------------------|
--5--3-----3------------------|-----5----5---5---5----5--|
------------------------------|--------------------------|
------------------------------|--------------------------|


  S E.  Q    E  E  S E.     E  E  S E.    Q    Q     
-------------------------|--------------------------|
----------------5----3---|--------------3g5---------|
----3--------------------|-----5----5---------------|
-------------------------|--------------------------|
-------------------------|--------------------------|


  E  E  S S E  E  E  S S E     E  E  S S E    Q    Q     
----------------------------|---------------------------|
----------------------------|---------------3g5----3----|
----------------------------|-----3--L-5----------------|
----------------------------|---------------------------|
-----5----5----5-------3----|---------------------------|


  E  E  S S E  Q    Q       E  E  S S E  Q    Q       E  E  S S E    Q    Q     
-------------------------|-------------------------|---------------------------|
---------------5----3----|---------------5----3----|---------------3g5----3----|
-----3----5--------------|-----3----5--------------|-----3--L-5----------------|
-------------------------|-------------------------|---------------------------|
-------------------------|-------------------------|---------------------------|


  E  E  S S E  E  E  Q       E  E  S S E  E.  S Q     
--------------------------|--------------------------|
-----3----3----3----------|-----3--L-3---------------|
--------------------------|-------------------5-L----|
--------------------------|--------------------------|
--------------------------|--------------------------|


  E  E  S S E    Q    Q       E  E   E  E    Q    Q       W                 
---------------------------|---------------------------|-------------------|
---------------3g5----3----|---------------3g5----3----|-------------------|
-----3--L-5----------------|-----3h--5-----------------|-------------------|
---------------------------|---------------------------|-------------------|
---------------------------|---------------------------|-------------------|


  Q    S S E  E.  S S S E     E  E  Q    E  E  Q     
---------------------------|------------------------|
---------5----5---5---5----|-----3-------3--3-------|
---------------------------|------------------------|
---------------------------|------------------------|
---------------------------|------------------------|


  E  E  S S E  E.  S E     E     E  E  S S E  E.  S E     E   
------------------------------|------------------------------|
-----3----3----3---3----6g10--|-----3----3----3---3----6g10--|
-------------------------5g9--|-------------------------5g9--|
------------------------------|------------------------------|
------------------------------|------------------------------|


  E  E  S S E  E.  S E     E     E  E  S S E  E.  S Q     
------------------------------|--------------------------|
-----3----3----3---3----6g10--|-----3----3----3---3------|
-------------------------5g9--|--------------------------|
------------------------------|--------------------------|
------------------------------|--------------------------|


  E  E  S S E  E.  S E  E     E  E  S S E  E.  S Q     
---------------------------|--------------------------|
---------------------------|--------------------------|
-----5----5----5---3----3--|-----5----5----5---5------|
---------------------------|--------------------------|
---------------------------|--------------------------|


  E  E  E  E  E  E  S E.     Q    S S E  E.  S E  E   
--------------------------|--------------------------|
--------------------------|--------------------------|
--5--3--------------------|--------------------------|
--------5--3-----3----3---|--------------------------|
--------------------------|---------5----5---5----5--|


  E  E  S S E  E.  S Q       E  E  S S E  E.  S E  E   
--------------------------|---------------------------|
--------------------------|------------------------3--|
--------------------------|---------------------------|
--------------------------|---------------------------|
-----5----5----5---5------|-----5----5----5---5-L-----|


  E  E  S S E  E.  S E  E     E  E  S S E  E.  S E  E   
---------------------------|---------------------------|
------------------------3--|------------------------3--|
---------------------------|---------------------------|
---------------------------|---------------------------|
-----5----5----5---5-L-----|-----5----5----5---5-L-----|


  fade                                                    
  E    E  S S E  E.  S E  E     E  E  S S E  E.  S E  E   
-----------------------------|---------------------------|
--------------------------3--|------------------------3--|
-----------------------------|---------------------------|
-----------------------------|---------------------------|
-------5----5----5---5-L-----|-----5----5----5---5-L-----|


  E  E  S S E  E.  S E  E     E  E  S S E  E.  S E  E   
---------------------------|---------------------------|
------------------------3--|---------------------------|
---------------------------|------------------------5--|
---------------------------|---------------------------|
-----5----5----5---5-L-----|-----5----5----5---5-L-----|


  E  E  S S E  E.  S E  E     E  E  S S E  Q    E  E   
---------------------------|--------------------------|
------------------------3--|--------------------------|
---------------------------|-----------------------5--|
---------------------------|--------------------------|
-----5----5----5---5-L-----|-----5----5----5----------|


  E  E  S S E  E.  S E  E     E  E  S S E  E.  S E  E   
---------------------------|---------------------------|
------------------------3--|---------------------------|
---------------------------|------------------------5--|
---------------------------|---------------------------|
-----5----5----5---5-L-----|-----5----5----5---5-L-----|


  E  E  S S E  E.  S Q      
--------------------------||
--------------------------||
--------------------------||
--------------------------||
-----5----5----5---5------||




Duration Legend
---------------
W - whole
H - half
Q - quarter
E - 8th
S - 16th


Get my other tabs for Guitar Pro, Powertab, guitar/bass text and chords at
http://profile.ultimate-guitar.com/TexasFury/contributions/
comments
We did not receive enough feedback on this tab! Please rate:
print report bad tab
1 2 3 4 5
I want to post or [tab]
guest
You may want to rate the tab now too:
select rating
Please do not post tabs as comments. Select "correction" instead!