Oops, an error
Loading. Please wait.

Road To Burn tab

2,698 views 24 this week
1 commentread comment
1 2 3 4 5
x 3
add to favorites
×
Save as Personal and add changes to this tab that will be seen only by you. Learn more ›
×
You can save this tab as Personal to edit and correct it or add notes. All changes will be seen only by you. Learn more »
launch autoscroll
font size
0
reset
how to read this tab
guitar tuner
edit
Autoscroll
slow
fast
+/-
esc
set tempo
stop
-------------------------------------------------------------------------------
                             ROAD TO BURN - 1000MODS
-------------------------------------------------------------------------------
Tabbed by:VakiPitsi

Tuning: Drop C (CGCFAD)

 (0:00-0:17)
D|----------------------------------------------------------------------------------------------------------|
A|-------6-6-----------6-6------------6-6------------6-6-------------6-6-----------6-6-------------6-6------|
F|---5h7-----7-----5h7-----7-7----5h7-----7------5h7-----7-5-----5h7-----7-----5h7------7-7----5h7-----7----|
C|----------------------------------------------------------------------------------------------------------|
G|----------------------------------------------------------------------------------------------------------|
C|-0-----------0-0--------------0------------0-0--------------0------------0-0---------------0--------------|

 (0:18-0:57)
D|----------------------------------------------------------------------------------------------------------|
A|----------------------------------------------------------------------------------------------------------|
F|----------------------------------------------------------------------------------------------------------|
C|-------3-3------------3-3------------3-3------------3-3------------3-3------------3-3-------------3-3-----|
G|-0-3h5-----5-0-0--3h5-----5-5-0--3h5-----5-0-0--3h5-----5-3-0--3h5-----5-0-0--3h5-----5-5--0--3h5-----5---|
C|-0-----------0-0--------------0------------0-0--------------0------------0-0---------------0--------------|

 (0:58-1:55)            (1:12)
D|-----------------------------------------------------------|
A|------------------8b---6-8-8p6---6-------------------------|
F|---------------------7---------7---7-----------------------|
C|-0-3-5-5-3-5-3-0----------------------0-3-5-5-3-5-3-0------|
G|-0-3-5-5-3-5-3-0----------------------0-3-5-5-3-5-3-0------|
C|-0-3-5-5-3-5-3-0----------------------0-3-5-5-3-5-3-0------|
  |-- palm muted--|                    |-- palm muted--|

 (1:56-2:33)
D|---------------------|
A|---------------------|
F|---------------------|
C|-0-3-5-5-3-5-3-0-----|
G|-0-3-5-5-3-5-3-0-----|
C|-0-3-5-5-3-5-3-0-----|

 (2:34-3:02)
D|----------------------------------------------------|
A|----------------------------------------------------|
F|----------------------------------------------------|
C|-7777-555-------------------3-3--------3-3----------|
G|-5555-333--0-3-6-6-5-0--3h5-----5--3h5-----5-5------|
C|-----------0-3-6-6-5-0------------------------------|

 (3:02-3:24)
D|-----------------------------|
A|-----------------------------|
F|-----------------------------|
C|-5/77-5-1010-----------------|
G|-3/55-3-8-8--0-3-6-6-5-0-----|
C|-------------0-3-6-6-5-0-----|

 (~~SOLO~~)

 (5:47-6:26)
D|---------------------------------------------|
A|---------------------------------------------|
F|---------10-10--------------10-10------------|
C|---10h12-------12-----10h12-------12-12---0~-|
G|-0----------------0-0---------------------0~-|
C|-0----------------0-0---------------------0~-|

 (6:36-6:56)
D|---------------------------------------------------------------------------|
A|---------------------------------------------------------------------------|
F|---------------------------------------------------------------------------|
C|---------------------------------------------------------------------------|
G|---------------------3h5p3---------------------------3h5p3-----------------|
C|-0--3-0-5--0-5-0-3-0-------5p3p0-0--3-0--5-0-5-0-3-0-------5p3p0-0---------|
  |-----------------------------palm muted---------------------------|

 (6:57-end)
D|---------------------------------------------------------------------------|
A|---------------------------------------------------------------------------|
F|---------------------------------------------------------------------------|
C|---------------------------------------------------------------------------|
G|-0--3-0-5--0-5-0-3-0-3h5p3-------0--3-0-5--0-5-0-3-0-3h5p3-------0---------|
C|-0--3-0-5--0-5-0-3-0-------5p3p0-0--3-0-5--0-5-0-3-0-------5p3p0-0---------|


************************************

| /   slide up
| \   slide down
| h   hammer-on
| p   pull-off
| ~   vibrato
| +   harmonic
| x   Mute note
| b   Bend
| pb  Pre-bend
| br  Bend release
| pbr Pre-bend release
| brb Bend release bend

************************************

            
            
Suggest correction
Creating personal tab
Creating personal tab
You can edit any tab online and save it as your Personal.

You can edit, replace or remove any tab part or add personal notes – all changes will be seen only by you.

Personal tabs can be accessed anytime from any device, even offline.
Learn more »
Give kudos to tab author, rate the tab!
1 2 3 4 5
comments
print report bad tab
1 comment total.
0 reply
ZeLiGa 14 Apr 21, 2016 12:17 PM

Seems ok to me ^^

guest
You may want to rate the tab now too:
select rating
Wanna post a correction for this tab? Suggest correction