Oops, an error
Loading. Please wait.

She Tab

517 views 33 this week
no commentswrite comment
1 2 3 4 5
x 3
add to favorites
launch autoscroll
font size
0
reset
how to read this tab
guitar tuner
Autoscroll
slow
fast
+/-
esc
set tempo
stop
Help us to improve Ultimate-Guitar.com Take our survey!
×
Author
Difficulty
Tuning
intermediate
C G C F A D
[0:00-0:30]

D|-------------------------------------------------------------------------|
A|-------------------------------------------------------------------------|
F|----5---------------------------------5----------------------------------|
C|-/7---3b---------------------------/7---3b-------------------------------|
G|---------5--3-5-3-5-3-5-3-5-3-5------------5--3-5-3-5-3-5-3-5-3-5-3------|
C|-------------------------------------------------------------------------|

D|-------------------------------------------------------------------------|
A|-------------------------------------------------------------------------|
F|----5---------------------------------5----------------------------------|
C|-/7---3b---------------------------/7---3b-------------------------------|
G|---------5--3-5-3-5-3-5-3-5-3-5------------5--3-5-3-5-3-5-3-5-3-5-3------|
C|-------------------------------------------------------------------------|


[0:30-0:55]

D|-------------------------------------------------------------------------------------------|
A|-------------------------------------------------------------------------------------------|
F|-------------------------------------------------------------------------------------------|
C|-5-5-5---7---7-7--7-7--7-7-7----5-5-5--7---7-7--7-7--7-7-7----5-5-5--7--7-7--7-7--7-7-7----|
G|-3-3-3---5---5-5--5-5--5-5-5----3-3-3--5---5-5--5-5--5-5-5----3-3-3--5--5-5--5-5--5-5-5----|
C|-------------------------------------------------------------------------------------------|
 

[0:55-1:20] + [2:33-3:20]

D|--------------------------------------------------------------------------------------------------|
A|-5-5-5--6--6-6--6-6--6-6-6----5-5-5--6--6-6--6-6--6-6-6----5-5-5--6--6-6--6-6--6-6-6--------------|
F|-5-5-5--7--7-7--7-7--7-7-7----5-5-5--7--7-7--7-7--7-7-7----5-5-5--7--7-7--7-7--7-7-7--------------|
C|-5-5-5--7--7-7--7-7--7-7-7----5-5-5--7--7-7--7-7--7-7-7----5-5-5--7--7-7--7-7--7-7-7--------------|
G|-3-3-3--5--5-5--5-5--5-5-5----3-3-3--5--5-5--5-5--5-5-5----3-3-3--5--5-5--5-5--5-5-5--------------|
C|--------------------------------------------------------------------------------------------------|
 

[1:20-2:33]

D|-----------------------------------------------------------------------------------------------------|
A|-----------------------------------------------------------------------------------------------------|
F|----------------------------------------------------10--10-10-10-------------------------------------|
C|---3-5-5/7-7p5-5-5\3---3-3-----3-5-5/7-7/10-10/12-12--12--------12--12-10\5-5/7----------------------|
G|-5-------------------5-----5--5----------------------------------------------------------------------|
C|-----------------------------------------------------------------------------------------------------|

D|-----------------------------------------------------------------------------------------------------|
A|-----------------------------------------------------------------------------------------------------|
F|-7-5-------7-5---------------------------5------------------------------5----------------------------|
C|-----5-5/7-----5-5\3--5p3--3--3-3-----/7---3b------------------------/7---3b-------------------------|
G|--------------------------5--5----5----------5--3-5-3-5-3-5-3-5-3-5---------5--3-5-3-5-3-5-3-5-3-5-3-|
C|-----------------------------------------------------------------------------------------------------|


[3:20-4:05]

D|------------------------------------------------------------------------------------------------------|
A|------------------------------------------------------------------------------------------------------|
F|------------------------------------------------------------------------------------------------------|
C|-109-5-7--5/7-5/7-5/7-5/7--10-10-12--7-5/7-5/7-5/7-5/7--109-5-7--7-5/7-5/7-5/7--1012-5--7-5/7-5/7-5/7-|
G|-8-7-3-5--3/5-3/5-3/5-3/5--8--8--10--5-3/5-3/5-3/5-3/5--8-7-3-5--5-3/5-3/5-3/5--8-10-3--5-3/5-3/5-3/5-|
C|------------------------------------------------------------------------------------------------------|


[4:05-4:28]

D|------------------------------------------------------------------------------------------------------|
A|------------------------------------------------------------------------------------------------------|
F|------------------------------------------------------------------------------------------------------|
C|-7--7-7-10-10-10-12-12-12--12-10-5-7--7-7-10-10-10-12-12-12--12-10-5-7-7-7-10-10-10-12-12-12----------|
G|-5--5-5-8--8--8--10-10-10--10-8--3-5--5-5-8--8--8--10-10-10--10-8--3-5-5-5-8--8--8--10-10-10----------|
C|------------------------------------------------------------------------------------------------------|


[Solo]

[4:28]
D|------------------------------------------------------------------------------------------------------|
A|------------------------6b----------------------6-8p6--6---------------------6-8p6--6-----------------|
F|-----------------5-7--7----7--7p5--5---5-5h7--7------7---7--5-7p5---5-5h7~--7------7--7--5-7p5--5-5h7~|
C|-------3---3-5/7-----------------7---7----------------------------7---------------------------7-------|
G|-5-5-5---5--------------------------------------------------------------------------------------------|
C|------------------------------------------------------------------------------------------------------|

D|----------------------8-------------------------------------------------------------------------------|
A|---6-------------6-8b---8p6---6-6---------------------------------------------------------------------|
F|-7-------------7------------7-----7--7-7p5---5----5--5h7---7---7p5---5--------------------------------|
C|-----10-10-12------------------------------7----7------------------7-----7-5-7p5-3--------------------|
G|-----8--8--10-----------------------------------------------------------------------------------------|
C|------------------------------------------------------------------------------------------------------|


D|-------------------15b-15brp13-15b-15brp13--------13-13-13-13-13-13-----------------------------------|
A|8b-10b-12b-15-15-18-----------------------15-13h15-----------------15-15-13---------13----------------|
F|---------------------------------------------------------------------------14-10-12b--12-10-12--------|
C|----------------------------------------------------------------------------------------------12-12---|
G|------------------------------------------------------------------------------------------------------|
C|------------------------------------------------------------------------------------------------------|


D|---------------------------------------------------------------------------|
A|--------------------------------------------------------15-13--------------|
F|--------13------10-10--12-----10----10---------10-12/14--------14-12--10---|
C|-10-12b------12--------12--12----12----12---12-----------------------------|
G|---------------------------------------------------------------------------|
C|---------------------------------------------------------------------------|


[5:10]
                                                                  
D|------------------------------------------------------------------------------------------------------|
A|----------------------3---------------------------------13-----------------10-10-13-10-13-13/15-15-15-|
F|-----------------5--5---5-2---222-5-5-5/7-7/10-10/12-12b---12br-10~~~---------------------------------|
C|------3---3h5-----------------------------------------------------------------------------------------|
G|--5-5---5---------------------------------------------------------------------------------------------|
C|------------------------------------------------------------------------------------------------------|

D|-13-15p13--15p13-------------------------------13-15p13--15p13--15p13---------------------------------|
A|---------15-----15---10-10-13-10-13-13/15-15-15--------15-----15-----15-13h15--15p13---13----13-13h15-|
F|-------------------------------------------------------------------------------------14---14----------|
C|------------------------------------------------------------------------------------------------------|
G|------------------------------------------------------------------------------------------------------|
C|------------------------------------------------------------------------------------------------------|

D|---13-15p13--15p13--15p13-----------------------------------------------------------------------------|
A|-15--------15-----15-----15-13h15---------------------------------------------------------------------|
F|------------------------------------------------------------------------------------------------------|
C|--------------------------------------3--3-5-5b-3~-3-5-5b-3~--3-5-5b-5-3-3---3-3---3-3---3-5-5b-5-3-3-|
G|-----------------------------------3h5-5-----------5--------5-------------5-5---5-5---5-5-------------|
C|------------------------------------------------------------------------------------------------------|

D|------------------------------------------------------------------------------------------------------|
A|----------------------------------------------------13------------------------------------------------|
F|-------10----10-12-12b-10----10-12-12b-10----10-12b----12-10------------10-10----12b-10-10--------10--|
C|-10h12----12--------------12--------------12----------------12----12-12-------12-----------12--12-----|
G|------------------------------------------------------------------------------------------------------|
C|------------------------------------------------------------------------------------------------------|

D|------------------------------------------------------------------------------------------------------|
A|-----13----------------------------------------------13--------------------------------13----13----13-|
F|-12b----12-10-------10-10----12b-10-10--------10-12b----12-10------12b-10-10-----10-12b--12b----12b---|
C|--------------12-12-------12-----------12--12----------------12-12----------12-12---------------------|
G|------------------------------------------------------------------------------------------------------|
C|------------------------------------------------------------------------------------------------------|


************************************

| /   slide up
| \   slide down
| h   hammer-on
| p   pull-off
| ~   vibrato
| b   Bend
| br  Bend release

************************************
Suggest correction
Give kudos to tab author, rate the tab!
1 2 3 4 5
comments
print report bad tab
guest
You may want to rate the tab now too:
select rating
Wanna post a correction for this tab? Suggest correction