Oops, an error
Loading. Please wait.

Chawla Tab

2,335 views 1 this week
no commentswrite comment
1 2 3 4 5
3 more votes to show rating
add to favorites
launch autoscroll
font size
0
reset
how to read this tab
guitar tuner
Autoscroll
slow
fast
+/-
esc
set tempo
stop
Help us to improve Ultimate-Guitar.com Take our survey!
×
Author
-------------------------------------------------------------------------------
                             Chawla - 10 Ft. Ganja Plant
-------------------------------------------------------------------------------
Tabbed by: Ryan
Email: Kingplanb@gmail.com

Tuning:

e|----17--13-------------------17--13--------------17------------------------|
B|------------15---17--13--10----------15---17--13---------------------------|
G|---------------------------------------------------------------------------|
D|---------------------------------------------------------------------------|
A|---------------------------------------------------------------------------|
E|---------------------------------------------------------------------------|

e|----17--13-----------------------------------------------------------------|
B|------------15---17--13--10---8--10--h13p--10--h13p------------------------|
G|---------------------------------------------------------------------------|
D|---------------------------------------------------------------------------|
A|---------------------------------------------------------------------------|
E|---------------------------------------------------------------------------|
Suggest correction
Give kudos to tab author, rate the tab!
1 2 3 4 5
comments
print report bad tab
guest
You may want to rate the tab now too:
select rating
Wanna post a correction for this tab? Suggest correction