Oops, an error
Loading. Please wait.

Top Down Bass Tab

688 views 1 this week
no commentswrite comment
1 2 3 4 5
please rate
add to favorites
launch autoscroll
font size
0
reset
guitar tuner
Autoscroll
slow
fast
+/-
esc
set tempo
stop
Help us to improve Ultimate-Guitar.com Take our survey!
×
Author
Difficulty
intermediate
                       TOP DOWN - 10 FT. GANJA PLANT
This is the VERSE. The bassist doesn't play this constantly, he improvises a lot. You 
can do a lot of cool things with it...

|---6--------------------------------|
|-----686~---5533--------------------|
|------------------3~----------------|
|------------------------------------|

|------------------------------------|
|-----------6(86)-----55-------------|
|--(3)44--48------------883~---------|
|------------------------------------|


There's a lot of improvising during the CHORUS as well, but you can play this constantly 
if you want:

|--------------------------------------|
|--------68686---55--------------------|   2x
|--44-4\8----------886633--------------|
|--------------------------------------|

|--------------------------------------|
|----------------55--------------------|
|--4--4~-----------886633--------------|
|--------------------------------------|

|--------------------------------------|
|--------68686---55--------------------|
|--44-4\8----------886633--------------|
|--------------------------------------|


That's about it really... Just listen to the song and it'll become very obvious how to 
play the rhythm and stuff :) Enjoy!
Suggest correction
Give kudos to tab author, rate the tab!
1 2 3 4 5
comments
print report bad tab
guest
You may want to rate the tab now too:
select rating
Please do not post tabs as comments. Select "correction" instead!