Oops, an error
Loading. Please wait.

Autumn Effect Tab

version 3
version 3

Whole song

Interactive

669 views 1 this week
no commentswrite comment
1 2 3 4 5
please rate
add to favorites
launch autoscroll
font size
0
reset
how to read this tab
guitar tuner
Tab Pro tools
  • play this tab
  • loop segment
  • change instrument
  • show fretboard
  • metronome
Autoscroll
slow
fast
+/-
esc
set tempo
stop
Contributor
Difficulty
novice
The Autumn Effect, by 10 Years

Tuned double drop Db (Db Ab Db Gb Bb Db)


Intro:

Guitar 1
Db|------7-0-------|8-----7---------|------7-0-------|8-----7---------|
Bb|----8-----8----8|----8-----8---8-|----8-----8----8|----8-----8---8-|
Gb|--7---------7---|------------7---|--7---------7---|------------7---|
Db|0---------------|----------------|0---------------|----------------|
Ab|----------------|----------------|----------------|----------------|
Db|----------------|----------------|----------------|----------------|


Guitar 1
Db|------7-0-------|8-----7---------|------7-0-------|8-----7---------|
Bb|----8-----8----8|----8-----8---8-|----8-----8----8|----8-----8---8-|
Gb|--7---------7---|------------7---|--7---------7---|------------7---|
Db|0---------------|----------------|0---------------|----------------|
Ab|----------------|----------------|----------------|----------------|
Db|----------------|----------------|----------------|----------------|

Guitar 2
Eb|----------------|----------------|----------------|----------------|
Bb|----------------|----------------|----------------|----------------|
Gb|3-3-3-3-3-3-3-3-|5-5-5-5-5-5-5-5-|----------------|----------------|
Db|----------------|----------------|0-0-0-0-0-0-0-0-|0-0-0-0-0-0-0-0-|
Ab|1-1-1-1-1-1-1-1-|3-3-3-3-3-3-3-3-|0-0-0-0-0-0-0-0-|0-0-0-0-0-0-0-0-|
Db|----------------|----------------|0-0-0-0-0-0-0-0-|0-0-0-0-0-0-0-0-|


Guitar 1
Db|------7-0-------|8-----7---------|------7-0-------|8-----7---------|
Bb|----8-----8----8|----8-----8---8-|----8-----8----8|----8-----8---8-|
Gb|--7---------7---|------------7---|--7---------7---|------------7---|
Db|0---------------|----------------|0---------------|----------------|
Ab|----------------|----------------|----------------|----------------|
Db|----------------|----------------|----------------|----------------|

Guitar 2
Db|----------------|----------------|15----12----12--|--13----12------|
Bb|----------------|----------------|----------------|----------------|
Gb|3-3-3-3-3-3-3-3-|5-5-5-5-5-5-5-5-|----------------|----------------|
Db|----------------|----------------|----------------|----------------|
Ab|1-1-1-1-1-1-1-1-|3-3-3-3-3-3-3-3-|----------------|----------------|
Db|----------------|----------------|----------------|----------------|


Verse 1:


"Casting a cool breeze"

Guitar 1
Db|----------------|----------------|------7-0-------|8-----7---------|
Bb|----------------|----------------|----8-----8---8-|----8-----8---8-|
Gb|3-3-3-3-3-3-3-3-|5-5-5-5-5-5-5-5-|--7---------7---|------------7---|
Db|----------------|----------------|0---------------|----------------|
Ab|1-1-1-1-1-1-1-1-|3-3-3-3-3-3-3-3-|----------------|----------------|
Db|----------------|----------------|----------------|----------------|

Guitar 2
Db|----------------|-----------(12)-|15----12----12--|--13----12------|
Bb|----------------|----------------|----------------|----------------|
Gb|----------------|----------------|----------------|----------------|
Db|----------------|----------------|----------------|----------------|
Ab|----------------|----------------|----------------|----------------|
Db|----------------|----------------|----------------|----------------|


"Supplied by the Autumn"

Guitar 1
Db|----------------|----------------|------7-0-------|8-----7---------|
Bb|----------------|----------------|----8-----8---8-|----8-----8---8-|
Gb|3-3-3-3-3-3-3-3-|5-5-5-5-5-5-5-5-|--7---------7---|------------7---|
Db|----------------|----------------|0---------------|----------------|
Ab|1-1-1-1-1-1-1-1-|3-3-3-3-3-3-3-3-|----------------|----------------|
Db|----------------|----------------|----------------|----------------|

Guitar 2
Db|----------------|-----------(12)-|15----12----12--|--13----12------|
Bb|----------------|----------------|----------------|----------------|
Gb|----------------|----------------|----------------|----------------|
Db|----------------|----------------|----------------|----------------|
Ab|----------------|----------------|----------------|----------------|
Db|----------------|----------------|----------------|----------------|


"Question where it went wrong"

Guitar 1
Db|------7-0-------|8-----7---------|------7-0-------|8-----7---------|
Bb|----8-----8----8|----8-----8---8-|----8-----8----8|----8-----8---8-|
Gb|--7---------7---|------------7---|--7---------7---|------------7---|
Db|0---------------|----------------|0---------------|----------------|
Ab|----------------|----------------|----------------|----------------|
Db|----------------|----------------|----------------|----------------|

Guitar 2
Db|15----12----12--|--13----12------|15----12----12--|--13----12------|
Bb|----------------|----------------|----------------|----------------|
Gb|----------------|----------------|----------------|----------------|
Db|----------------|----------------|----------------|----------------|
Ab|----------------|----------------|----------------|----------------|
Db|----------------|----------------|----------------|----------------|


"Climbing Jacobs Ladder" (X2)

Guitar 1
Db|----------------|----------------|------7-0-------|8-----7---------|
Bb|----------------|----------------|----8-----8---8-|----8-----8---8-|
Gb|3-3-3-3-3-3-3-3-|5-5-5-5-5-5-5-5-|--7---------7---|------------7---|
Db|----------------|----------------|0---------------|----------------|
Ab|1-1-1-1-1-1-1-1-|3-3-3-3-3-3-3-3-|----------------|----------------|
Db|----------------|----------------|----------------|----------------|

Guitar 2
Db|----------------|-----------(12)-|15----12----12--|--13----12------|
Bb|----------------|----------------|----------------|----------------|
Gb|----------------|----------------|----------------|----------------|
Db|----------------|----------------|----------------|----------------|
Ab|----------------|----------------|----------------|----------------|
Db|----------------|----------------|----------------|----------------|

"Kindly Could you Re-evaluate"

Guitar 1
Db|------7-0-------|8-----7---------|------7-0-------|8-----7---------|
Bb|----8-----8----8|----8-----8---8-|----8-----8----8|----8-----8---8-|
Gb|--7---------7---|------------7---|--7---------7---|------------7---|
Db|0---------------|----------------|0---------------|----------------|
Ab|----------------|----------------|----------------|----------------|
Db|----------------|----------------|----------------|----------------|

Guitar 2
Db|15----12----12--|--13----12------|15----12----12--|--13----12------|
Bb|----------------|----------------|----------------|----------------|
Gb|----------------|----------------|----------------|----------------|
Db|----------------|----------------|----------------|----------------|
Ab|----------------|----------------|----------------|----------------|
Db|----------------|----------------|----------------|----------------|


"Autumn's animated growth"

Guitar 1
Db|------7-0-------|8-----7---------|----------------|----------------|
Bb|----8-----8---8-|----8-----8---8-|----------------|----------------|
Gb|--7---------7---|------------7---|3-3-3-3-3-3-3-3-|2---------------|
Db|0---------------|----------------|----------------|2-----------12\-|
Ab|----------------|----------------|1-1-1-1-1-1-1-1-|0-----------12\-|
Db|----------------|----------------|----------------|------------12\-|

Guitar 2
Db|15----12----12--|--13----12------|----------------|----------------|
Bb|----------------|----------------|----------------|----------------|
Gb|----------------|----------------|----------------|----------------|
Db|----------------|----------------|----------------|------------12\-|
Ab|----------------|----------------|----------------|------------12\-|
Db|----------------|----------------|----------------|------------12\-|

Chorus:

"Autumn Indicates the death of beauty as we know
Autumn Indicates the death of beauty as we know
Keep on fighting one died from burning at his throat
Autumn swiftly stole the breath of body, mind and-"

Guitar 1
Db|----------------|----------------|----------------|----------------|
Bb|----------------|----------------|----------------|----------------|
Gb|----------------|----------------|----------------|----------------|
Db|00--00-0---0-0--|00--00-0---0-0--|8--8-8--8--8--8-|10-1010-10-10-10|
Ab|00--00-0---0-0--|00--00-0---0-0--|8--8-8--8--8--8-|10-1010-10-10-10|
Db|00--00-0---0-0--|00--00-0---0-0--|8--8-8--8--8--8-|10-1010-10-10-10|


"Soul"

Guitar 1
Db|------7-0-------|8-----7---------|
Bb|----8-----8---8-|----8-----8---8-|
Gb|--7---------7---|------------7---|
Db|0---------------|----------------|
Ab|----------------|----------------|
Db|----------------|----------------|

Guitar 2
Db|----------------|----------------|
Bb|----------------|----------------|
Gb|----------------|----------------|
Db|0---------------|----0------0----|
Ab|0---------------|----0------0----|
Db|0---------------|----0------0----|


Verse 2


Guitar 1
Db|------7-0-------|8-----7---------|
Bb|----8-----8---8-|----8-----8---8-|
Gb|--7---------7---|------------7---|
Db|0---------------|----------------|
Ab|----------------|----------------|
Db|----------------|----------------|


"Try and come to, willingly embrace"

Guitar 1
Db|----------------|----------------|------7-0-------|8-----7---------|
Bb|----------------|----------------|----8-----8---8-|----8-----8---8-|
Gb|3-3-3-3-3-3-3-3-|5-5-5-5-5-5-5-5-|--7---------7---|------------7---|
Db|----------------|----------------|0---------------|----------------|
Ab|1-1-1-1-1-1-1-1-|3-3-3-3-3-3-3-3-|----------------|----------------|
Db|----------------|----------------|----------------|----------------|

Guitar 2
Db|----------------|-----------(12)-|15----12----12--|--13----12------|
Bb|----------------|----------------|----------------|----------------|
Gb|----------------|----------------|----------------|----------------|
Db|----------------|----------------|----------------|----------------|
Ab|----------------|----------------|----------------|----------------|
Db|----------------|----------------|----------------|----------------|


"Kharma's kiss of withering decay"

Guitar 1
Db|----------------|----------------|------7-0-------|8-----7---------|
Bb|----------------|----------------|----8-----8---8-|----8-----8---8-|
Gb|3-3-3-3-3-3-3-3-|5-5-5-5-5-5-5-5-|--7---------7---|------------7---|
Db|----------------|----------------|0---------------|----------------|
Ab|1-1-1-1-1-1-1-1-|3-3-3-3-3-3-3-3-|----------------|----------------|
Db|----------------|----------------|----------------|----------------|

Guitar 2
Db|----------------|-----------(12)-|15----12----12--|--13----12------|
Bb|----------------|----------------|----------------|----------------|
Gb|----------------|----------------|----------------|----------------|
Db|----------------|----------------|----------------|----------------|
Ab|----------------|----------------|----------------|----------------|
Db|----------------|----------------|----------------|----------------|

"Death feeds, hell breeds"

Db|------7-0-------|8-----7---------|------7-0-------|8-----7---------|
Bb|----8-----8----8|----8-----8---8-|----8-----8----8|----8-----8---8-|
Gb|--7---------7---|------------7---|--7---------7---|------------7---|
Db|0---------------|----------------|0---------------|----------------|
Ab|----------------|----------------|----------------|----------------|
Db|----------------|----------------|----------------|----------------|

Guitar 2
Db|15----12----12--|--13----12------|15----12----12--|--13----12------|
Bb|----------------|----------------|----------------|----------------|
Gb|----------------|----------------|----------------|----------------|
Db|----------------|----------------|----------------|----------------|
Ab|----------------|----------------|----------------|----------------|
Db|----------------|----------------|----------------|----------------|


"Subside in the autumn"

Guitar 1
Db|------7-0-------|8-----7---------|----------------|----------------|
Bb|----8-----8---8-|----8-----8---8-|----------------|----------------|
Gb|--7---------7---|------------7---|3-3-3-3-3-3-3-3-|2---------------|
Db|0---------------|----------------|----------------|2-----------12\-|
Ab|----------------|----------------|1-1-1-1-1-1-1-1-|0-----------12\-|
Db|----------------|----------------|----------------|------------12\-|

Guitar 2
Db|15----12----12--|--13----12------|----------------|----------------|
Bb|----------------|----------------|----------------|----------------|
Gb|----------------|----------------|----------------|----------------|
Db|----------------|----------------|----------------|------------12\-|
Ab|----------------|----------------|----------------|------------12\-|
Db|----------------|----------------|----------------|------------12\-|


Chorus


"Autumn Indicates the death of beauty as we know
Autumn Indicates the death of beauty as we know
Keep on fighting one died from burning at his throat
Autumn swiftly stole the breath of body, mind and-"

Guitar 1
Db|----------------|----------------|----------------|----------------|
Bb|----------------|----------------|----------------|----------------|
Gb|----------------|----------------|----------------|----------------|
Db|00--00-0---0-0--|00--00-0---0-0--|8--8-8--8--8--8-|10-1010-10-10-10|
Ab|00--00-0---0-0--|00--00-0---0-0--|8--8-8--8--8--8-|10-1010-10-10-10|
Db|00--00-0---0-0--|00--00-0---0-0--|8--8-8--8--8--8-|10-1010-10-10-10|


Outro

"Silent beauty"

Guitar 1

Db|----------------|----------------|----------------|----------------|
Bb|----------------|----------------|----------------|----------------|
Gb|----------------|----------------|----------------|----------------|
Db|8--8-8--8--10-10|10-1010-10-12-12|0---0-0-0---0---|0---0-0-0---0---|
Ab|8--8-8--8--8--8-|10-1010-10-10-10|0---0-0-0---0---|0---0-0-0---0---|
Db|8--8-8--8--8--8-|10-1010-10-10-10|0---0-0-0---0---|0---0-0-0---0---|


"No one cares"

Db|----------------|----------------|
Bb|----------------|----------------|
Gb|----------------|----------------|
Db|8--8-8--10-10-10|10-1010-12-12-12|
Ab|8--8-8--8--8--8-|10-1010-10-10-10|
Db|8--8-8--8--8--8-|10-1010-10-10-10|


"Silent ending"

Db|----------------|----------------|----------------|----------------|
Bb|----------------|----------------|----------------|----------------|
Gb|----------------|----------------|----------------|----------------|
Db|0---0-0-0---0---|0---0-0-0---0---|8--8-8--10-10-10|10-1010-12-12-12|
Ab|0---0-0-0---0---|0---0-0-0---0---|8--8-8--8--8--8-|10-1010-10-10-10|
Db|0---0-0-0---0---|0---0-0-0---0---|8--8-8--8--8--8-|10-1010-10-10-10|


"No one is there"

Db|----------------|-----------------|
Bb|----------------|-----------------|
Gb|----------------|-----------------|
Db|8--8-8--10-10-10|12-12-12-12-12-12|
Ab|8--8-8--8--8--8-|10-10-10-10-10-10|
Db|8--8-8--8--8--8-|10-10-10-10-10-10|


Guitar 1

Db|----------------|----------------|----------------|----------------|
Bb|----------------|----------------|----------------|----------------|
Gb|----------------|----------------|----------------|----------------|
Db|0---------------|----------------|----------------|----------------|
Ab|0---------------|----------------|----------------|----------------|
Db|0---------------|----------------|----------------|----------------|

Guitar 2

Db|----2-----------|----2-----------|----2-----------|----2-----------|
Bb|--3------3------|--3------3------|--3------3------|--3------3------|
Gb|2---------------|2---------------|2---------------|2---------------|
Db|----------------|----------------|----------------|----------------|
Ab|----------------|----------------|----------------|----------------|
Db|----------------|----------------|----------------|----------------|

Db|----2-----------|----2-----------|----2-----------|----2-----------|
Bb|--3------3------|--3------3------|--3------3------|---------3------|
Gb|2---------------|2---------------|----------------|----------------|
Db|----------------|----------------|----------------|----------------|
Ab|----------------|----------------|----------------|----------------|
Db|----------------|----------------|----------------|----------------|
comments
We did not receive enough feedback on this tab! Please rate:
print report bad tab
1 2 3 4 5
I want to post or [tab]
guest
You may want to rate the tab now too:
select rating
Please do not post tabs as comments. Select "correction" instead!