Oops, an error
Loading. Please wait.

Cast It Out Tab

version 2
version 2

Whole song

Interactive

3,617 views 9 this week
1 commentread comment
1 2 3 4 5
excellent!
x 3
add to favorites
launch autoscroll
font size
0
reset
how to read this tab
guitar tuner
Tab Pro tools
  • play this tab
  • loop segment
  • change instrument
  • show fretboard
  • metronome
Autoscroll
slow
fast
+/-
esc
set tempo
stop
Contributor
Difficulty
Tuning
novice
C# G# C# F# A# D#
10 Years - Cast It Out
Track #5 off of "The Autumn Effect"

INTRO
Eb|-----------------------------------------------------------------------|
Bb|-----------------------------------------------------------------------|
Gb|-----------------------------------------------------------------------|
Db|-----------------------------------------------------------------------|
Ab|-0000000xx5555555xx333333333333333xx0000000xx5555555xx3333333333333333-|
Db|-0000000xx5555555xx333333333333333xx0000000xx5555555xx3333333333333333-|
    .......  .......  ...............  .......  .......  ................

VERSE/CHORUS - Play 2x
Be sure to notice that the guitars are simultaneously playing two different but similar parts!!!!
Guitar 1
Eb|--------------------------------|
Bb|--------------------------------|
Gb|--------------------------------|
Db|-00000000-88888888-55555555-----|
Ab|-00000000-55555555-33333333-----|
Db|-00000000-55555555-33333333-----|

Guitar 2
Eb|--------------------------------|
Bb|--------------------------------|
Gb|--------------------------------|
Db|-77777777-88888888-77777777-----|
Ab|-55555555-55555555-33333333-----|
Db|-00000000-55555555-33333333-----|

VERSE
Guitar 1
Eb|----------------------------------------|
Bb|----------------------------------------|
Gb|----------------------------------------|
Db|------12--------12-------12--------12---|
Ab|-0-00------0-00-----0-00------0-00------|
Db|-0-00------0-00-----0-00------0-00------|
    . ..      . ..     . ..      . ..                

VERSE/CHORUS - Play 4x
VERSE - Play 1x

BREAK - there is a background guitar playing, but its tough to hear....
Eb|-------------------------------------------------|
Bb|-------------------------------------------------|
Gb|-------------------------------------------------|
Db|-------------------------------------------------|
Ab|------------------------------------------xx-----|
Db|------------------------------------------xx-----|
Both Guitars - no guitars until 1:37 ------> ^^

VERSE/CHORUS - Play 2x

BRIDGE - 4x
Eb|-----------------------------------|
Bb|-----------------------------------|
Gb|-------------14-14-12-12--12-------|
Db|-77-00-333---x--x--x--x---x--------|
Ab|-77-00-333-0-12-12-10-10--10-------|
Db|-77-00-333-0-----------------------|

INTRO - Play 2x
VERSE/CHORUS - Play 2x
BRIDGE - Play 4x
comments
We did not receive enough feedback on this tab! Please rate:
print report bad tab
1 2 3 4 5
1 comment total.
0 reply
Justinbasore wrote on October 7 2012, 06:26 pm

the Bridge is two guitar parts. i dont know the higher part, but i do know the lower part should go like..
Eb:------------------------
Bb:------------------------
Gb:------------------------
Db:-7-7--0-0-3-3-0--7-7--5-5
Ab:-7-7--0-0-3-3-0--7-7--5-5
Db:-7-7--0-0-3-3-0--7-7--5-5

I want to post or [tab]
guest
You may want to rate the tab now too:
select rating
Please do not post tabs as comments. Select "correction" instead!