Oops, an error
Loading. Please wait.

Fix Me Tab

version 2
version 2

Acoustic

Whole song

Interactive

12,037 views 3 this week
1 commentread comment
1 2 3 4 5
please rate
add to favorites
launch autoscroll
font size
0
reset
how to read this tab
guitar tuner
Autoscroll
slow
fast
+/-
esc
set tempo
stop
Help us to improve Ultimate-Guitar.com Take our survey!
×
---------------------------------------------------------------------------
			     Fix Me (Acoustic) - 10 years
---------------------------------------------------------------------------
Tabbed by: Keagan
Email: dejavoux66@hotmail.com

Tuning: Semi-open C# tuning.  Flats, then string one (skinniest) tuned down a whole step 
and string two (second skinniest) tuned up a half step.
lastly, the sixth string (fattest) is dropped a whole step similar to "drop D" tuning, 
except its drop C# in this case.

1. C#
2. B
3. A#
4. C#
5. G#
6. C#

Intro
					  2x
C#|-----------------------------------------|-------------------------------|
B |----------------------------------------.|-------------------------------|
A#|----------10---------3--------2----------|-------------------------------|
C#|----0---------0---------0---------0-----.|-------------------------------|
G#|-------0---------0---------0---------0---|-------------------------------|
C#|-0---------------------------------------|-------------------------------|

Verse (Strummed)

        It's taken a lifetime to lose my way      4x
C#|----------0-------0-------------------0----0----|------------------------|
B |----------2-------0-------------------0----0----|------------------------|
A#|----------2-------2-------------------3---p2----|------------------------|
C#|----------0-------0-------------------3----3----|------------------------|
G#|----------0-------0-------------------1----1----|------------------------|
C#|------------------------------------------------|------------------------|

Pre-chorus

                   Crossing lines    3x     what is  mine
C#|----------------0------0-----0-----|-----0--0--0---0-0----0---0----------|
B |----------------5--\---4--/--7----.|.----0--0--0---0-0----0---0----------|
A#|----------------7--\---5--/--5-----|-----10-10-10--1010---12--12--x-x-x--|
C#|---8--p0--0-----0------0-----0----.|.----8--8--8---8-8-/--10--10--x-x-x--|
G#|---8--p0--0------------------------|-----8--8--8---8-8-/--10--10--x-x-x--|
C#|---8--p0--0------------------------|-----8--8--8---8-8-/--10--10--x-x-x--|

Chorus
      But I'm fine in the fire    I feed on the friction
C#|-----------0---------------------0---------------------------------------|
B |-----------0---------------------0---------------------------------------|
A#|-----------10-------------------/12--------------------------------------|
C#|-----------8--------------------/10--------------------------------------|
G#|-----------8--------------------/10--------------------------------------|
C#|-----------8--------------------/10--------------------------------------|

     I'm right where I should be    don't try  and fix me
C#|------0--------------------------------0----0----0---0-------------------|
B |------0--------------------------------0----0----0---0-------------------|
A#|------7--------------------------------7----9----10--12------------------|
C#|------5--------------------------------5----7----8---10------------------|
G#|------5--------------------------------5----7----8---10------------------|
C#|------5--------------------------------5----7----8---10------------------|

Bridge - sort of an alternate picking style
      Isolation ect
C#|-----------------------------------------------|-------------------------|
B |-----------------------------------------------|-------------------------|
A#|---10---10---10---10---9----9----8----8--------|-------------------------|
C#|---0----0----0----0----0----0----0----0--------|-------------------------|
G#|-----------------------------------------------|-------------------------|
C#|-0----0----0----0----0----0----0----0----------|-------------------------|
************************************

| /   slide up
| \   slide down
| h   hammer-on
| p   pull-off
| ~   vibrato
| +   harmonic
| x   Mute note
| b   Bend
| pb  Pre-bend
| br  Bend release
| pbr Pre-bend release
| brb Bend release bend
Suggest correction
Give kudos to tab author, rate the tab!
1 2 3 4 5
comments
print report bad tab
1 comment total.
0 reply
frosflame 10 wrote on May 28 2012, 11:01 am

Change the A# in the tuning to an F#, and the last string in the bridge is a 7, not an 8. I think that's how it goes, otherwise, great tab! Had fun with it!

guest
You may want to rate the tab now too:
select rating
Wanna post a correction for this tab? Suggest correction