Oops, an error
Loading. Please wait.

Fix Me Tab

version 1
version 1

Whole song

Interactive

4,456 views 30 this week
no commentswrite comment
1 2 3 4 5
excellent!
x 4
add to favorites
launch autoscroll
font size
0
reset
how to read this tab
guitar tuner
Tab Pro tools
  • play this tab
  • loop segment
  • change instrument
  • show fretboard
  • metronome
×
Best way to learn
"Fix Me"
Autoscroll
slow
fast
+/-
esc
set tempo
stop
Contributor
Difficulty
Tuning
intermediate
C# G# C# F# A# D#
10 Years - Fix Me 

Tuning: C# G# C# F# A# D#

Tabbed by: Tim W (BigTim72) Xbox Gamertag: Last xHopex

08/21/2013



Intro (Lead) [Clean]

D#|----------------------------------|
A#|----------------------------------|
F#|--------10------------------------|
C#|------0----0----8----8-7----7-----| x2
G#|---10--------10---10-----10---10--|
C#|-0--------------------------------|

Verse (Rhythm & Lead) [Clean]

D#|-------------------------------------------------|
A#|-6~----------------------------------------------|
F#|-7~----------------------------------------------|
C#|-0~----/7--5--5-5h7p5-0--10~--10~-10-------1010~-| x4
G#|-0~-----------------------8~---8~--8~-------8~8~-|
C#|-0~-----------------------8~---8~--8~-------8~8~-|

Pre-Chorus (Lead) [Heavy Distortion]

D#|--------------------------------------------------------------------|
A#|--------------------------------------------------------------------|
F#|-------------------------------------------------------------9~10~--|
C#|-8-0~00~--8~--7~-7~-7h8~-8-0~00~--8~--7~--7h10~-8-0~00~--8~---------|
G#|-8-0~00~-10~-10~10~1010~-8-0~00~-10~-10~-10~10~-8-0~00~-10~---------|
C#|-8-0~00~-----------------8-0~00~----------------8-0~00~-------------|

D#|--------------------------------|
A#|--------------------------------|
F#|--------------------------------|
C#|-8~-8~-8~-8~-8/10~10~10~-xx-xx--|
G#|-8~-8~-8~-8~-8/10~10~10~-xx-xx--|
C#|-8~-8~-8~-8~-8/10~10~10~-xx-xx--|

Pre-Chorus (Rhythm) [Heavy Distortion]

D#|--------------------------------------------------------------------|
A#|--------------------------------------------------------------------|
F#|--------------------------------------------------------------------|
C#|-8-0~00~-----------------8-0~00~----------------8-0~00~-------------|
G#|-8-0~00~-----------------8-0~00~----------------8-0~00~-------------|
C#|-8-0~00~-----------------8-0~00~----------------8-0~00~-------------|

D#|--------------------------------|
A#|--------------------------------|
F#|--------------------------------|
C#|-8~-8~-8~-8~-8/10~10~10~-xx-xx--|
G#|-8~-8~-8~-8~-8/10~10~10~-xx-xx--|
C#|-8~-8~-8~-8~-8/10~10~10~-xx-xx--|

Chorus (Lead) [Heavy Distortion]

{Determine your own strumming patern for the 8, 10, & 5 power chords}

D#|----------------------------------------------|
A#|----------------------------------------------|
F#|----------------------------------------------| 
C#|-8~---8/10~---\5~---5555/7777/8888/10101010---| x2
G#|-8~---8/10~---\5~---5555/7777/8888/10101010---|
C#|-8~---8/10~---\5~---5555/7777/8888/10101010---|

Chorus (Rhythm) [Heavy Distortion]

D#|----------------------------------------------|
A#|----------------------------------------------|
F#|----------------------------------------------| 
C#|-8~---8/10~---\5~---5555/7777/8888/10101010---| x1
G#|-8~---8/10~---\5~---5555/7777/8888/10101010---|
C#|-8~---8/10~---\5~---5555/7777/8888/10101010---|

D#|--------------------------------------------|
A#|--------------------------------------------|
F#|-10----10----10----10----9----9----7---7----|
C#|----12----12----12----12---10---10---8---8--| x3
G#|--------------------------------------------|
C#|--------------------------------------------|
     .  .  .  .  .  .  .  . .  . .  . . . . .

D#|----------------------------|
A#|----------------------------|
F#|----------------------------| 
C#|-5555/7777/8888/10101010-0~-| 
G#|-5555/7777/8888/10101010-0~-|
C#|-5555/7777/8888/10101010-0~-|
                            ^- slowly turn down volume after strum
Pre-Verse 2 (Lead) [Clean]

D#|----------------------------------|
A#|----------------------------------|
F#|--------10------------------------|
C#|------0----0----8----8-7----7-----| x2
G#|---10--------10---10-----10---10--|
C#|-0--------------------------------|

Verse 2 (Rhythm & Lead) [Clean]

D#|-------------------------------------------------|
A#|-6~----------------------------------------------|
F#|-7~----------------------------------------------|
C#|-0~----/7--5--5-5h7p5-0--10~--10~-10-------1010~-| x2
G#|-0~-----------------------8~---8~--8~-------8~8~-|
C#|-0~-----------------------8~---8~--8~-------8~8~-|

Pre-Chorus 2 (Lead) [Heavy Distortion]

D#|--------------------------------------------------------------------|
A#|--------------------------------------------------------------------|
F#|-------------------------------------------------------------9~10~--|
C#|-8-0~00~--8~--7~-7~-7h8~-8-0~00~--8~--7~--7h10~-8-0~00~--8~---------|
G#|-8-0~00~-10~-10~10~1010~-8-0~00~-10~-10~-10~10~-8-0~00~-10~---------|
C#|-8-0~00~-----------------8-0~00~----------------8-0~00~-------------|

D#|--------------------------------|
A#|--------------------------------|
F#|--------------------------------|
C#|-8~-8~-8~-8~-8/10~10~10~-xx-xx--|
G#|-8~-8~-8~-8~-8/10~10~10~-xx-xx--|
C#|-8~-8~-8~-8~-8/10~10~10~-xx-xx--|

Pre-Chorus 2 (Rhythm) [Heavy Distortion]

D#|--------------------------------------------------------------------|
A#|--------------------------------------------------------------------|
F#|--------------------------------------------------------------------|
C#|-8-0~00~-----------------8-0~00~----------------8-0~00~-------------|
G#|-8-0~00~-----------------8-0~00~----------------8-0~00~-------------|
C#|-8-0~00~-----------------8-0~00~----------------8-0~00~-------------|

D#|--------------------------------|
A#|--------------------------------|
F#|--------------------------------|
C#|-8~-8~-8~-8~-8/10~10~10~-xx-xx--|
G#|-8~-8~-8~-8~-8/10~10~10~-xx-xx--|
C#|-8~-8~-8~-8~-8/10~10~10~-xx-xx--|

Chorus 2 (Lead) [Heavy Distortion]

{Determine your own strumming patern for the 8, 10, & 5 power chords}

D#|----------------------------------------------|
A#|----------------------------------------------|
F#|----------------------------------------------| 
C#|-8~---8/10~---\5~---5555/7777/8888/10101010---| x2
G#|-8~---8/10~---\5~---5555/7777/8888/10101010---|
C#|-8~---8/10~---\5~---5555/7777/8888/10101010---|

Chorus 2 (Rhythm) [Heavy Distortion]

D#|----------------------------------------------|
A#|----------------------------------------------|
F#|----------------------------------------------| 
C#|-8~---8/10~---\5~---5555/7777/8888/10101010---| x1
G#|-8~---8/10~---\5~---5555/7777/8888/10101010---|
C#|-8~---8/10~---\5~---5555/7777/8888/10101010---|

D#|--------------------------------------------|
A#|--------------------------------------------|
F#|-10----10----10----10----9----9----7---7----|
C#|----12----12----12----12---10---10---8---8--| x3
G#|--------------------------------------------|
C#|--------------------------------------------|
     .  .  .  .  .  .  .  . .  . .  . . . . .

D#|---------------------------|
A#|---------------------------|
F#|---------------------------| 
C#|-5555/7777/8888/10101010.--| 
G#|-5555/7777/8888/10101010.--|
C#|-5555/7777/8888/10101010.--|

Breakdown (Lead) [Heavy Distortion]

D#|---------------------------------|
A#|---------------------------------|
F#|-7---7---7---7---7---7---7---7---|
C#|---0---0---0---0---0---0---0---0-| x8
G#|---------------------------------|
C#|---------------------------------|
    . . . . . . . . . . . . . . . .

Breakdown (Rhythm) [Heavy Distortion]

After the 4th time on the Lead, Rhythm plays this.

D#|---------------------------------|
A#|---------------------------------|
F#|---------------------------------|
C#|-00.-----------------------------| x4
G#|-00.-----------------------------|
C#|-00.-----------------------------|

Pre-Chorus 3 (Lead & Rhythm) [Heavy Distortion]

D#|-------------------|
A#|-------------------|
F#|-------------------|
C#|-55555555/888xxxx--|
G#|-55555555/888xxxx--|
C#|-55555555/888xxxx--|

Chorus 3 (Lead) [Heavy Distortion]

{Determine your own strumming patern for the first 8, 10, & 5 power chords}

D#|----------------------------------------------|
A#|----------------------------------------------|
F#|----------------------------------------------| 
C#|-8~---8/10~---\5~---5555/7777/8888/10101010---| x3
G#|-8~---8/10~---\5~---5555/7777/8888/10101010---|
C#|-8~---8/10~---\5~---5555/7777/8888/10101010---|

Chorus 3 (Rhythm) [Heavy Distortion]

D#|----------------------------------------------|
A#|----------------------------------------------|
F#|----------------------------------------------| 
C#|-8~---8/10~---\5~---5555/7777/8888/10101010---| x1
G#|-8~---8/10~---\5~---5555/7777/8888/10101010---|
C#|-8~---8/10~---\5~---5555/7777/8888/10101010---|

D#|--------------------------------------------|      -
A#|--------------------------------------------|       |
F#|-10----10----10----10----9----9----7---7----|       |
C#|----12----12----12----12---10---10---8---8--| x3    | 
G#|--------------------------------------------|       |
C#|--------------------------------------------|       |
     .  .  .  .  .  .  .  . .  . .  . . . . .          | x2
                                                       | 
D#|---------------------------|                        |
A#|---------------------------|                        |
F#|---------------------------|                        |
C#|-5555/7777/8888/10101010.--|                        |
G#|-5555/7777/8888/10101010.--|                        |
C#|-5555/7777/8888/10101010.--|                       -

Post-Chrous 3 (Lead) [Heavy Distortion]

D#|-----------------------------------------|
A#|-----------------------------------3~~~~~|
F#|-------------9~-9h10~--------------2~~~~~|
C#|-8-0-00~-8~-----------8-0-00~8-0-0-0~~~~~|
G#|-8-0-00~10------------8-0-00~8-0-0-0~~~~~|
C#|-8-0-00~--------------8-0-00~8-0-0-0~~~~~|

Post-Chorus 3 (Rhythm) [Heavy Distortion]

D#|-----------------------------------------|
A#|-----------------------------------3~~~~~|
F#|-----------------------------------2~~~~~|
C#|-8-0-00~8-0-00~-------8-0-00~8-0-0-0~~~~~|
G#|-8-0-00~8-0-00~-------8-0-00~8-0-0-0~~~~~|
C#|-8-0-00~8-0-00~-------8-0-00~8-0-0-0~~~~~|
comments
print report bad tab
I want to post or [tab]
guest
You may want to rate the tab now too:
select rating
Please do not post tabs as comments. Select "correction" instead!