Oops, an error
Loading. Please wait.

Now Is The Time Tab

4,788 views 3 this week
2 commentsread comments
1 2 3 4 5
please rate
add to favorites
launch autoscroll
font size
0
reset
how to read this tab
guitar tuner
Autoscroll
slow
fast
+/-
esc
set tempo
stop
Help us to improve Ultimate-Guitar.com Take our survey!
×
Contributor
Difficulty
Tuning
huera713 108
novice
C# G# C# F# A# D#
got the intro and bridge corrected thanks to mysticguitar77

Intro/Pre-Chorus
(distortion)
|---------------------------------| |--------------------------------|
|---------------------------------| |--------------------------------|
|---------------------------------| |--------------------------------| x2
|---------------------------------| |--------------------------------|
|---------------------------------| |----------------------------3---|
|-0-5-8-5-8-5-0-5-7-5-7-5-0-3-5-3-| |-0-5-8-5-8-5-0-5-7-5-7-5-0-3----|

(clean)
|------------------------------------------------------------|
|------------------------------------------------------------|
|-7-7-7-77-9-1010-1010--10-9-7-7-7-77-7-7-5-5-5-55-5---------|
|-x-x-x-xx-x-x-x---xx----8-7-5-5-5-55-5-5-3-3-3-33-3---------| x3
|-5-5-5-55-7-8-8---88----8-7-5-5-5-55-5-5-3-3-3-33-3---------|
|------------------------8-7-5-5-5-55-5-5-3-3-3-33-3---------|

|------------------------------------------------------------|
|------------------------------------------------------------|
|-7-7-7-77-9-1010-1010--10-9-7-7-7-77-7-7---5-5-5-55-5-------|
|-x-x-x-xx-x-x-x---xx----8-7-5-5-5-55-5-5---3-3-3-33-3-xxxx--|
|-5-5-5-55-7-8-8---88----8-7-5-5-5-55-5-5---3-3-3-33-3-xxxx--|
|------------------------8-7-5-5-5-55-5-5---3-3-3-33-3-xxxx--|
                                                      ^-----------distortion

pre-chorus
|---------------------------------| |--------------------------------|
|---------------------------------| |--------------------------------|
|---------------------------------| |--------------------------------| x2
|---------------------------------| |--------------------------------|
|---------------------------------| |----------------------------3---|
|-0-5-8-5-8-5-0-5-7-5-7-5-0-3-5-3-| |-0-5-8-5-8-5-0-5-7-5-7-5-0-3----|

Chorus(repeat twice)
(slightly bend on last 10)
(figure out strums)
|--------------------------| |--------------------------|   
|--------------------------| |--------------------------|    
|--------------------------| |--------------------------|
|-0~-10-0~-10--------------| |-0~-10-888888-5555-1010---| x2
|-0~-10-0~-10--------------| |-0~-10-888888-5555-1010---|
|-0~-10-0~-10--------------| |-0~-10-888888-5555-1010---|    

(verse 2)
(clean)
|------------------------------------------------------------|
|------------------------------------------------------------|
|-7-7-7-77-9-1010-1010--10-9-7-7-7-77-7-7-5-5-5-55-5---------|
|-x-x-x-xx-x-x-x---xx----8-7-5-5-5-55-5-5-3-3-3-33-3---------| 
|-5-5-5-55-7-8-8---88----8-7-5-5-5-55-5-5-3-3-3-33-3---------|
|------------------------8-7-5-5-5-55-5-5-3-3-3-33-3---------|

|------------------------------------------------------------|
|------------------------------------------------------------|
|-7-7-7-77-9-1010-1010--10-9-7-7-7-77-7-7---5-5-5-55-5-------|
|-x-x-x-xx-x-x-x---xx----8-7-5-5-5-55-5-5---3-3-3-33-3-xxxx--|
|-5-5-5-55-7-8-8---88----8-7-5-5-5-55-5-5---3-3-3-33-3-xxxx--|
|------------------------8-7-5-5-5-55-5-5---3-3-3-33-3-xxxx--|
                                                      ^-----------distortion

pre-chorus
|---------------------------------| |--------------------------------|
|---------------------------------| |--------------------------------|
|---------------------------------| |--------------------------------| x2
|---------------------------------| |--------------------------------|
|---------------------------------| |----------------------------3---|
|-0-5-8-5-8-5-0-5-7-5-7-5-0-3-5-3-| |-0-5-8-5-8-5-0-5-7-5-7-5-0-3----|

Chorus(repeat twice)
(slightly bend on last 10)
(figure out strums)
|--------------------------| |--------------------------|   
|--------------------------| |--------------------------|    
|--------------------------| |--------------------------|
|-0~-10-0~-10--------------| |-0~-10-888888-5555-1010---| x2
|-0~-10-0~-10--------------| |-0~-10-888888-5555-1010---|
|-0~-10-0~-10--------------| |-0~-10-888888-5555-1010---|                    

end second chorus on open power chords and let ring into

(bridge)(palm mute part)
|-------------------------------|
|-------------------------------|
|-------------------------------|
|-------------------------------| x3
|---8p7---5p0-------------------|
|-0-----0-----0-3-3/5-0-3p0-3p0-|

|----------------------------------|
|----------------------------------|
|----------------------------------|
|----------------------------------|
|---8p7---5p0----------------------|
|-0-----0-----0-3-3/5-0-3p0-3p0-3b-|

(second part of bridge, no palm mute)
|-------------------------------|
|-------------------------------|
|-------------------------------|
|-------------------------------| x3
|---8p7---5p0-------------------|
|-0-----0-----0-3-3/5-0-3p0-3p0-|

|----------------------------------|
|----------------------------------|
|----------------------------------|
|----------------------------------|
|---8p7---5p0----------------------|
|-0-----0-----0-3-3/5-0-3p0-3p0-3b-|

Chorus/Outro(repeat twice)
(slightly bend on last 10)
(figure out strums)
(on second time end with open powerchords)
|--------------------------| |--------------------------|   
|--------------------------| |--------------------------|    
|--------------------------| |--------------------------|
|-0~-10-0~-10--------------| |-0~-10-888888-5555-1010---| x2
|-0~-10-0~-10--------------| |-0~-10-888888-5555-1010---|
|-0~-10-0~-10--------------| |-0~-10-888888-5555-1010---|    

Suggest correction new What's this?
You can suggest a correction to this tab. Community and Mods will review your correction and vote to approve or reject it.
comments
We did not receive enough feedback on this tab! Please rate:
print report bad tab
1 2 3 4 5
2 comments total.
0 reply
mysticguitar77 6,032 wrote on November 30 2010, 09:10 pm

Pretty good, the only mistakes are in the Intro/Pre-Chorus and the bridge. It goes something like this:

Intro/Pre-Chorus
|---------------------------------|
|---------------------------------|
|---------------------------------|
|---------------------------------|
|---------------------------------|
|-0-5-8-5-8-5-0-5-7-5-7-5-0-3-5-3-|

|-------------------------------|
|-------------------------------|
|-------------------------------|
|-------------------------------|
|-----------------------------3-|
|-0-5-8-5-8-5-0-5-7-5-7-5-0-3---|

I think you just overtabbed it a little bit and the bridge goes like this:

|-------------------------------|
|-------------------------------|
|-------------------------------|
|-------------------------------|
|---8p7---5p0-------------------|
|-0-----0-----0-3-3/5-0-3p0-3p0-|

The bridge ending is just a bend vibrato on the 3rd fret 6th string. Good tab nonetheless. 4 stars.

0 reply
huera713 108 wrote on December 2 2010, 09:05 am

yeah i knew there was lol..i was just watching your video of it and was about to correct this tab..thanks again..

guest
You may want to rate the tab now too:
select rating
Please do not post tabs as comments. Select "correction" instead!