Oops, an error
Loading. Please wait.

One More Day Tab

6,177 views 12 this week
1 commentread comment
1 2 3 4 5
excellent!
x 5
add to favorites
launch autoscroll
font size
0
reset
how to read this tab
guitar tuner
Tab Pro tools
  • play this tab
  • loop segment
  • change instrument
  • show fretboard
  • metronome
×
Best way to learn
"One More Day"
Autoscroll
slow
fast
+/-
esc
set tempo
stop
Contributor
Difficulty
Tuning
intermediate
C# G# C# F# A# D#
----------------------------------------------------------------------------
                             ONE MORE DAY - 10 Years
----------------------------------------------------------------------------
Tabbed by: am33


Tuning: Drop C#

Intro/Verses:

D#|------------------------------------------------------------------------|
A#|------------------------------------------------------------------------|
F#|---0--------------------------------------------------------------------|
C#|-----4---5--5/7\4--4--4-4-4-0-0-0-0-------------------------------------|
G#|-2-----2-2---------5--5-5-5-5-5-5-5-------------------------------------|
C#|---------2---------5--5-5-5-5-5-5-5-------------------------------------|

on the last one play:

D#|------------------------------------------------------------------------|
A#|------------------------------------------------------------------------|
F#|---0--------------------------------------------------------------------|
C#|-----4---5--5/7\4--5-5-5-5-5-5-5-5-5-5-5-5-7-7-7-7----------------------|
G#|-2-----2-2---------5-5-5-5-5-5-5-5-5-5-5-5-7-7-7-7----------------------|
C#|---------2---------5-5-5-5-5-5-5-5-5-5-5-5-5-7-7-7----------------------|
                  (pm)x x x x x x x x x x x x x x x x

Chorus: Part 1

D#|------------------------------------------------------------------------|
A#|------------------------------------------------------------------------|
F#|------------------------------------------------------------------------|
C#|-9---9--9-9-2---2--2-2-7---7--7-7--7-7-7-7------------------------------|
G#|-9---9--9-9-2---2--2-2-7---7--7-7--7-7-7-7------------------------------|
C#|-9---9--9-9-2---2--2-2-7---7--7-7--7-7-7-7------------------------------|

Chorus: Part 2 (For one more day...)

Guitar 1:

D#|------------------------------------------------------------------------|
A#|------------------------------------------------------------------------|
F#|------------------------------------------------------------------------|
C#|-5---5--5--5-5-5---2---2--2--2-2-2---0---0--0--0-0-0---7---7--7--7-7-7-7|
G#|-5---5--5--5-5-5---2---2--2--2-2-2---0---0--0--0-0-0---7---7--7--7-7-7-7|
C#|-5---5--5--5-5-5---2---2--2--2-2-2---0---0--0--0-0-0---7---7--7--7-7-7-7|

Guitar 2:

D#|-14-------14-------14---------------------------------------------------|
A#|----15-------15---------------------------------------------------------|
F#|-------16-------16----16------------------------------------------------|
C#|------------------------------------------------------------------------|
G#|------------------------------------------------------------------------|
C#|------------------------------------------------------------------------|

Verse:

Chorus 1:

Chorus 2:

Bridge:

D#|------------------------------------------------------------------------|
A#|------------------------------------------------------------------------|
F#|------------------------------------------------------------------------|
C#|-9-9-9-9---11-11-11-11---12--7--2--4--5--2--7---------------------------|
G#|-9-9-9-9---11-11-11-11---12--7--2--4--5--2--7---------------------------|
C#|-9-9-9-9---11-11-11-11---12--7--2--4--5--2--7---------------------------|

on the last one play:

D#|------------------------------------------------------------------------|
A#|------------------------------------------------------------------------|
F#|------------------------------------------------------------------------|
C#|-9-9-9-9---11-11-11-11---12--7--2--2--2-2--2-2--2-2-7--7--7-------------|
G#|-9-9-9-9---11-11-11-11---12--7--2--2--2-2--2-2--2-2-7--7--7-------------|
C#|-9-9-9-9---11-11-11-11---12--7--2--2--2-2--2-2--2-2-7--7--7-------------|

Acoustic Pre-Chorus:

D#|---------------------0--------------------------------------------------|
A#|---------------------0--------------------------------------------------|
F#|---0-----------------9--------------------------------------------------|
C#|-----4---5--5------7-7--------------------------------------------------|
G#|-2-----2-2--2----7---7--------------------------------------------------|
C#|---------2--2--7-----7--------------------------------------------------|

Chorus 2:

End with:

D#|------------------------------------------------------------------------|
A#|------------------------------------------------------------------------|
F#|---0--------------------------------------------------------------------|
C#|-----4---5--5/7\4--4----------------------------------------------------|
G#|-2-----2-2---------5----------------------------------------------------|
C#|---------2---------5----------------------------------------------------|


That`s it. Enjoy.



************************************

| /   slide up
| \   slide down
| h   hammer-on
| p   pull-off
| ~   vibrato
| +   harmonic
| x   Mute note
| b   Bend
| pb  Pre-bend
| br  Bend release
| pbr Pre-bend release
| brb Bend release bend

************************************
comments
print report bad tab
1 comment total.
0 reply
Tremonti952 wrote on September 7 2011, 12:38 pm

Great song, and great tab. Nice one man

I want to post or [tab]
guest
You may want to rate the tab now too:
select rating
Please do not post tabs as comments. Select "correction" instead!