Oops, an error
Loading. Please wait.

Seasons To Cycles tab

version 4
version 4

Whole song

Interactive

2,644 views 1 this week
3 commentsread comments
1 2 3 4 5
x 3
add to favorites
×
Save as Personal and add changes to this tab that will be seen only by you. Learn more ›
×
You can save this tab as Personal to edit and correct it or add notes. All changes will be seen only by you. Learn more »
launch autoscroll
font size
0
reset
how to read this tab
guitar tuner
edit
Autoscroll
slow
fast
+/-
esc
set tempo
stop
Author
Difficulty
intro/verse
e(---------------------)
b(---------------------)
g(---------------------)
d(------4-----6------3-)
e(--1-2---3-4---0-1----)
E(---------------------)

chorus
e(-----------------------------------)
b(-----------------------------------)
g(-----------------------------------)
d(--88888-888888888-66666-6666666666-)
a(--88888-888888888-66666-6666666666-)
E(--66666-666666666-44444-4444444444-)

lead
e(--22222-22222242-11111-1110421-)
b(-------------------------------)
g(-------------------------------)
d(-------------------------------)
a(-------------------------------)
E(-------------------------------)

outro
e(-------------------------------------------------)
b(-------------------------------------------------)
g(-------------------------------------------------)
d(------4-----6-----3----2---3---2-0-----4-----6-3-)
a(--1-2---3-4---0-1----1---1---1-----1-2---3-4---1-)
E(-------------------------------------------------)

            
            
Suggest correction
Creating personal tab
Creating personal tab
You can edit any tab online and save it as your Personal.

You can edit, replace or remove any tab part or add personal notes – all changes will be seen only by you.

Personal tabs can be accessed anytime from any device, even offline.
Learn more »
Give kudos to tab author, rate the tab!
1 2 3 4 5
comments
print report bad tab
3 comments total.
+2 reply
Skathe_665 73 Jul 23, 2006 02:46 AM

Dude, do yourself a favor...never, make another tab. Please, for the love of GOD...don't!

0 reply
Faustus22 10 May 16, 2011 10:57 PM

Yea... sorry bud but this doesn't sound even close

0 reply
Faustus22 10 May 16, 2011 11:02 PM

For starters it's definitely in Drop Db
Here's the opener (really the coolest part of the song imo)
eb(---------------------)
bb(---------------------)
gb(---------------------)
db(---5~~---7~~----4~~--)
ab(--2----5------0------)
Db(-2----5------0-------)

guest
You may want to rate the tab now too:
select rating
Wanna post a correction for this tab? Suggest correction