Oops, an error
Loading. Please wait.

Shoot It Out Tab

version 1
version 1

Whole song

Interactive

7,109 views 1 this week
4 commentsread comments
1 2 3 4 5
worth learning
x 3
add to favorites
launch autoscroll
font size
0
reset
how to read this tab
guitar tuner
Autoscroll
slow
fast
+/-
esc
set tempo
stop
Help us to improve Ultimate-Guitar.com Take our survey!
×
Difficulty
Tuning
intermediate
B F# B E G# C#
All right, I just got this from watching them play live online and listening to it.  I'm 
90% sure this is right, especially the chorus.  I was dropped down and tuned in B for 
i don't know if it's lower or higher.

Verse
"Shoot it shoot it out cause they want it want it now now..."

|-----------------------------------|
|-----------------------------------|
|-----------------------------------|   x4
|-7-(Keeping strumming this)----3-3-|
|-5-(You'll have to listen )----1-1-|
|-----------------------------------|

Pre-chorus
"I'm ready to die..."

|-----------------------------------|
|-----------------------------------|
|-----------------------------------|    x2
|-----------------------------------|
|-----------------------------------|
|-1-3-1-3-1-0--0-1-3-1-0------------|

Chorus
"Will you kill what's left of me..."

|-----------------------------------|
|-----------------------------------|
|-----------------------------------|
|-5-------3-------8---------1-------|
|-5-------3-------8---------1-------|
|-5-------3-------8---------1-------|

so it does these four chords and then does the prechorus 2 times. then the four chords 
and then the prechorus 2 times.

Verse

Prechorus

Chorus

Bridge
"feeding the wolves..."

During this they just play one chord and the other guitar does a harmony.  And then it 
back into the Prechorus Riff while the other guitar solos right before the last chorus.  
one chord in the Bridge is:

|-----------------------------------|
|-----------------------------------|
|-----------------------------------|
|-1---------------------------------|
|-1---------------------------------|
|-1---------------------------------|

You'll have to listen to the song here.  They strum this "1" chord then stop, and then 
strumming it more steadily in a PALM MUTE.

Chorus

Prechorus for the outro x4

* on the 4th prechorus riff at the end they start hitting the "1" chord from the bridge, 
listen and you'll get it.  It then rings out on that chord.  That's all it is :D
Suggest correction
What's this?
You can suggest a correction to this tab. Community and Mods will review your correction and vote to approve or reject it.
comments
We did not receive enough feedback on this tab! Please rate:
print report bad tab
1 2 3 4 5
4 comments total. Showing first comments.
0 reply
Shor-T Zero 277 wrote on September 2 2010, 02:13 pm

The tuning is Drop D, then a half step down (Drop Db).

The chorus appears correct, that's the way I play it.

At different points of the pre-chorus, they go an octave up. Maybe they play like this live, but I'm going off of the song. Also in the verse, they do play an octave, but they have a higher note that has a little discord to it. Probably the harmony guitar playing it as well as the octave.

Close from what I can see, so keep at it.

0 reply
incubusgeek1 15 wrote on September 2 2010, 06:16 pm

Tuning is DADGDD. This is from reputable source that knows the band and it sounds better than both tunings mentioned and its the way they play it.

The verse is fine but the chorus is wrong. It is played like so...also there is a phaser in there at the first time

D 0 1 0 1 0 0 1 3 0 1 0
A 3

The interlude is also partially correct. There are open barred chords being played in between your barred first fret. Like so..

D 1 1 1 0 0 0 1
A 1 1 1 0 0 0 1
D 1 1 1 0 0 0 1

And the solo can be seen here on my youtube page. It is 100% correct in the DADGDD tuning.
http://www.youtube.com/watch?v=--91Kim8ljc

0 reply
incubusgeek1 15 wrote on September 2 2010, 06:17 pm

D 0-1--0-1-0-0-1-3-0-1-0
A ----3-----------------

Sorry..like so

guest
You may want to rate the tab now too:
select rating
Please do not post tabs as comments. Select "correction" instead!