Oops, an error
Loading. Please wait.

Silhouette Of A Life intro tab

version 1
version 1

Intro

Whole song

1,492 views 1 this week
2 commentsread comments
1 2 3 4 5
3 more votes to show rating
add to favorites
×
Save as Personal and add changes to this tab that will be seen only by you. Learn more ›
×
You can save this tab as Personal to edit and correct it or add notes. All changes will be seen only by you. Learn more »
launch autoscroll
font size
0
reset
how to read this tab
guitar tuner
edit
Autoscroll
slow
fast
+/-
esc
set tempo
stop
d#.----------------------------------------------------------------|
a#.----------------------------------------------------------------|
f#.----------------------------------------------------------------|
c#.------------3--3-----3-----2--2-----2---------------------------|    2x
g#.-------h5---------0-----0--------0-----0------------------------|
c#.--h12-----------------------------------------------------------|


d#.----------------------------------------------------------------|
a#.----------------------------------------------------------------|
f#.----------------------------------------------------------------|
c#.-------------3--3-----3-----2--2-----2--------------------------|
g#.-------h5----------0-----0--------0-----0-----------------------|
c#.--h12-----------------------------------------------------------|


d#.----------------------------------------------------------------|
a#.----------------------------------------------------------------|
f#.----------------------------------------------------------------|
c#.--------h12--3--3-----3-----2-----------------------------------|
g#.---h12-------------0-----0--------------------------------------|
c#.----------------------------------------------------------------|


                                        Main Riff/Verse
d#.----------------------------------------------------------------|
a#.----------------------------------------------------------------|
f#.-------3--2---0--2---3--2---0--2--------------------------------|
c#.------------3------3------3-------------------------------------|
g#.----------------------------------------------------------------|
c#.----0-----------------------------------------------------------|


d#.----------------------------------------------------------------|
a#.----------------------------------------------------------------|
f#.-------3--2-----3--2-----5--3--0--3--2--------------------------|
c#.----2--------3--------------------------------------------------|
g#.----------------------------------------------------------------|
c#.----------------------5-----------------------------------------|

I'm working on the rest of the song, it's been difficult with the low quality of the 
but I'm about to start again now that they've re-released it on their new deluxe edition in 
much better quality. If you have any questions feel free to ask! :)

            
            
Suggest correction
Creating personal tab
Creating personal tab
You can edit any tab online and save it as your Personal.

You can edit, replace or remove any tab part or add personal notes – all changes will be seen only by you.

Personal tabs can be accessed anytime from any device, even offline.
Learn more »
Give kudos to tab author, rate the tab!
1 2 3 4 5
comments
print report bad tab
2 comments total.
+1 reply
rberg79 20 Oct 25, 2011 02:56 PM

thanks for the start, the chorus is

d#.--------------------------
a#.--3------6------8------11-
f#.--2------5------7------10-
c#.--0------3------5------8--
g#.--0------3------5------8--
c#.--0------3------5------8--

or play this without G and B strings if you prefer. im still tabbing it out for myself and may just write the whole tab.

0 reply
Rockhead1412 93 Sep 18, 2013 05:21 PM

The open A string in between the 3 and 2 D string should be 5

guest
You may want to rate the tab now too:
select rating
Wanna post a correction for this tab? Suggest correction