Oops, an error
Loading. Please wait.

So Long Goodbye Chords

version 1
version 1

Interactive

55,421 views 51 this week
6 commentsread comments
1 2 3 4 5
worth learning
x 6
add to favorites
launch autoscroll
font size
0
reset
transpose
0
reset
display chords
guitar tuner
Autoscroll
slow
fast
+/-
esc
set tempo
stop
Help us to improve Ultimate-Guitar.com Take our survey!
×
Author
Song is tuned down to Eb
Eb Ab Db Gb Bb Eb
Also throw some hammer-ons in when playing the Am chord.  Sorry for how incomplete it is 
this is the basics.  

intro                       
Eb----------------------------3--3---3--------0------|
Bb----------------------------3--3---3--------1------|
Gb-------5-----------4--------4--4---4--------2------|
Db---7----------5-------------5--5---5--------2------|
Ab-0--0-------3---3-----------5--5---5--------0------|
Eb----------------------------3--3---3--------0------|


Keep changing your mind like clouds in the sky

Love me when you're high, leave me when you cry
                           G (barre)      Am            G          Am
I know it all takes time, like a river running dry when the sun's too bright

(The second G played is barred)

C     G      G     Am
So long this is goodbye

C         G      G         Am
May we meet again in another life
C         G      G         Am
Like strangers passing by
C         G      G         Am
May we see clearly in a different life

play intro intro next verse


Keep dodging lights like a thief in the night
The sun will rise and expose all our lies
So why deny that you and I lead different lives?
Eb-----------------------------3--3-----0--|
Bb-------5----------3---3------3--3-----1--|
Gb-----5---5----------4---4----4--4-----2--|
Db-----------------------------5--5-----2--|
Ab---0-------------------------5--5-----0--|
Eb-----------------------------3--3-----0--|
The rivers from your eyes can't change my mind

So long this is goodbye
May we meet again in another life
Like strangers passing by
May we see clearly in a different life

Oh no, no

The rivers from your eyes can't change my mind

So long this is goodbye
May we meet again in another life 

the little guitar part after Jesse sings  

Eb-------0----0---0-------------------------------|
Bb-------5b---1---0-------------------------------|
Gb------------------------------------------------|
Db------------------------------------------------|
Ab------------------------------------------------|
Eb------------------------------------------------|

Like strangers passing by
Eb---0----0---0---------------------|
Bb---1p0--1---1p0-------------------|
Gb---2----2---2---------------------|
Db---2----2---2---------------------|
Ab---0----0---0---------------------|
Eb---0----0---0---------------------|
May we see clearly in a different life

End on
Eb-------0--------------------|
Bb------1---------------------|
Gb-----2---------------------|
Db----2-----------------------|
Ab---0------------------------|
Eb--0------------------------|
Suggest correction
comments
print report bad tab
6 comments total. Showing first comments.
0 reply
wiel-e-waal 21 wrote on May 26 2008, 03:26 pm

ok chords

real tab will be nice intro bridge etc...

love 10 years

-1 reply
23averagerocker 138 wrote on June 8 2008, 01:21 pm

What the...?

+1 reply
StaindOrange09 10 wrote on June 9 2008, 01:56 pm

It has mistakes but it proved to be a good rough outline of the song, giving me something to work off of instead of having to figure the entire thing out on my own. Thanks :)

guest
You may want to rate the tab now too:
select rating
Please do not post tabs as comments. Select "correction" instead!