Oops, an error
Loading. Please wait.

So Long Goodbye tab

version 4
version 4

Interactive

10,055 views 1 this week
5 commentsread comments
1 2 3 4 5
x 3
add to favorites
×
Save as Personal and add changes to this tab that will be seen only by you. Learn more ›
×
You can save this tab as Personal to edit and correct it or add notes. All changes will be seen only by you. Learn more »
launch autoscroll
font size
0
reset
how to read this tab
guitar tuner
edit
Autoscroll
slow
fast
+/-
esc
set tempo
stop
Song: So Long, Good-Bye
Band: 10 YEARS!!!
Album: Division
Tuning: Standard Eb / Lowest to highest: Eb, Ab, Db, Gb, Bb, Eb

Ok, this is the only acoustic song off of the Division album
10 Years has recently released. I'm pretty sure the verses & the
Chorus is accurate, if not just let me know for future reference.
E-mail me at ten_years_rockz@yahoo.com if there is anything wrong. 
So, here it is.

(Oh, and the mutes you see are just there to let you know that there are
SOME mutes present in the song. I don't know the EXACT rhythm of 
when & how many mutes there are at a time, but just listen to the song
& figure it out. All I'm putting down is the main idea of what chords
are used, in what order they are used, and where there might be mutes.)

Intro:
                                    [x2]
Eb|-----------------------------------0-|                          
Bb|-----------------------------------1-|
Gb|-5-----5---4-----4---xx-----4--xx--2-|                          
Db|---7---------5-------xx-----5--xx--2-|
Ab|-----7---------7-----xx-----5--xx--0-|                          
Eb|---------------------xx--3--3--xx--x-|


Verse 1:
                                    [x3]|...then              [x2]
Eb|-----------------------------------0-|---------------0---------|
Bb|-----------------------------------1-|---------------1---------|
Gb|-5-----5---4-----4---xx-----4--xx--2-|-xx-----4--xx--2---------| 
Db|---7---------5-------xx-----5--xx--2-|-xx-----5--xx--2---------|
Ab|-----7---------7-----xx-----5--xx--0-|-xx-----5--xx--0---------|
Eb|---------------------xx--3--3--xx--x-|-xx--3--3--xx--x---------|
                                         (like a river running dry...)

Chorus: (Hint, remember I'm just tabbing out what chords are played.
I'm NOT putting down how many times each are played. Just listen
to the song & figure out the strumming pattern each chord is played)
                                                    [x2]
Eb|-3------x------3------0------0---------0------0------|       
Bb|-0------3------3------1------1---------0------1--0h1-|
Gb|-0--xx--2--xx--0--xx--2--xx--0--xx-----4--xx--2------|       
Db|-2--xx--2--xx--2--xx--2--xx--2--xx-----5--xx--2------|
Ab|-3--xx--0--xx--3--xx--0--xx--3--xx-----5--xx--0------|       
Eb|-x--xx-----xx--x--xx--x--xx-----xx--3--3--xx--x------|


Verse 2:
                                    [x2]|then...
Eb|-----------------------------------0-|---------------------------0-|
Bb|-----------------------------------1-|-----5---3---3-------------1-|
Gb|-5-----5---4-----4---xx-----4--xx--2-|---5---5---4---4----4--xx--2-| 
Db|---7---------5-------xx-----5--xx--2-|-7------------------5--xx--2-|
Ab|-----7---------7-----xx-----5--xx--0-|--------------------5--xx--0-|
Eb|---------------------xx--3--3--xx--x-|-----------------3--3--xx--x-|
                                         (So why deny that you & I...)
                        [x2]
Eb|---------------0---------|
Bb|---------------1---------|
Gb|-xx-----4--xx--2---------| 
Db|-xx-----5--xx--2---------|
Ab|-xx-----5--xx--0---------|
Eb|-xx--3--3--xx--x---------|

Play chorus again...

Bridge: (I'm not too sure about the bridge. Damn piano made it hard to
hear it. This is where you can tell me somethings wrong. I'll tab out
the strumming pattern I use, but ONLY for this.)
                                                 [x4]|then...  [x4]
Eb|--------------------------------------------------|-----------0-|   
Bb|--------------------------------------------------|-----------1-|   
Gb|-xx-------9--xx------------7--xx--4--44444--44444-|----4--xx--2-|   
Db|-xx-------9--xx------------7--xx--5--55555--55555-|----5--xx--2-|   
Ab|-xx-7--77-7--xx---9---9-9--9--xx--3--33333--33333-|----5--xx--0-|   
Eb|-xx-8--88-8--xx--10--1010-10--xx--3--33333--33333-|-3--3--xx--x-|   
                                                      (Oh...)
                                                      (The rivers from 
                                                       your eyes...)

Play chorus again, the last time.

Ending:
                                    [x2]
Eb|-----------------------------------0-|                          
Bb|-----------------------------------1-|
Gb|-5-----5---4-----4---xx-----4--xx--2-|                          
Db|---7---------5-------xx-----5--xx--2-|
Ab|-----7---------7-----xx-----5--xx--0-|                          
Eb|---------------------xx--3--3--xx--x-|

That's that. Enjoy...


Suggest correction
Creating personal tab
Creating personal tab
You can edit any tab online and save it as your Personal.

You can edit, replace or remove any tab part or add personal notes – all changes will be seen only by you.

Personal tabs can be accessed anytime from any device, even offline.
Learn more »
Give kudos to tab author, rate the tab!
1 2 3 4 5
comments
print report bad tab
5 comments total. Showing first comments.
0 reply
rcollier 10 Jul 20, 2008 07:53 PM

these tabs for all these songs are so wrong!!! can't anyone hear the finger picking of the open A and the bottom C in the verse??? its just Am and C without the index finger...ugh...seriously, learn how to play guitar, listen...and THEN TAB!!!

+1 reply
23averagerocker 138 Jul 30, 2008 06:58 PM

You know, its funny you should say that baby, cause i see you & what YOU'VE done, and I don't see a damn thing from you. So i'd like to see you get off ur lazy @ss and actually tab something that'll "own" my tab(s). ugh...seriously, learn how to back your sh!t up, and THEN TALK SH!T!!

0 reply
23averagerocker 138 Jul 30, 2008 07:01 PM

AH!!! I made a mistake...ur new here...ok. Well, then tab this song up so it'll make mine & everyone elses tabs look like sh!t. Have fun

guest
You may want to rate the tab now too:
select rating
Wanna post a correction for this tab? Suggest correction