Oops, an error
Loading. Please wait.

So Long Goodbye Chords

version 6
version 6

Interactive

3,134 views 1 this week
1 commentread comment
1 2 3 4 5
accurate
x 3
add to favorites
launch autoscroll
font size
0
reset
transpose
0
reset
simplify chords
display chords
guitar tuner
Autoscroll
slow
fast
+/-
esc
set tempo
stop
Help us to improve Ultimate-Guitar.com Take our survey!
×
Author
Difficulty
Tuning
intermediate
D# G# C# F# A# D#
Artist: 10 Years
Song: So Long, Goodbye

I'm farily certain they play this in a different tuning (like so many of their 
other songs), but this 

sounds accurate enough to play fairly easily with the recording.  I prefer to use 
open chords, but you 

can play the string picking section using barre chords (as noted in Verse 2).


Cadd9 [x32030]

Intro:                       
Eb---------------------3-3-0--|
Bb-------1----0-----0--0-0-1--|
Gb--------------0------0-0-2--|
Db---2------------0----0-0-2--|
Ab-0---0---------------2-2-0--|
Eb---------------------3-3-X--|

Verse 1 (Follow the intro for first 3 phrases)

Keep changing your mind like clouds in the sky
Love me when you're high, leave me when you cry
I know it all takes time                        

        G            Am            G          Am
like a river running dry when the sun's too bright

Chorus

C     G           Am
So long this is goodbye
C           G                Am
May we meet again in another life
     C     G          Am
Like strangers passing by
C           G                     Am
May we see clearly in a different life

Verse 2


Eb---------------------3-3-0--|
Bb-------1----0-----0--0-0-1--|
Gb--------------0------0-0-2--|
Db---2------------0----0-0-2--|
Ab-0---0---------------2-2-0--|
Eb---------------------3-3-X--|

Keep dodging lights like a thief in the night
The sun will rise and expose all our lies

Eb-0--0------------3-3-0-|     OR   Eb--------------3-3-5-|
Bb--1--1--3--3--- -0-0-1-|          Bb-5--5---3--3--3-3-5-|
Gb---------4--4----0-0-2-|          Gb--5--5---4--4-4-4-5-|
Db-----------------0-0-2-|          Db--------------5-5-7-|
Ab-----------------2-2-0-|          Ab--------------5-5-7-|
Eb-----------------3-3-x-|          Eb--------------3-3-5-|
                              G        Am
Why deny that you and I lead Different Lives
    G                Am         G         Am
The rivers from your eyes can't change my mind
C   G               Am
So long this is goodbye
C           G                 Am
May we meet again in another life
     C      G          Am
Like strangers passing by
C           G                     Am
May we see clearly in a different life

Interlude
Am C  G  Am x2

G Am  Cadd9 G
Oooh, whooa

    G                Am         G         Am
The rivers from your eyes can't change my mind
C   G               Am
So long this is goodbye
C           G                 Am
May we meet again in another life
     C      G          Am
Like strangers passing by
C           G                     Am
May we see clearly in a different life


Outro (Played 2x):

Eb---------------------3-3-0--|
Bb-------1----0-----0--0-0-1--|
Gb--------------0------0-0-2--|
Db---2------------0----0-0-2--|
Ab-0---0---------------2-2-0--|
Eb---------------------3-3-X--|
Suggest correction
What's this?
You can suggest a correction to this tab. Community and Mods will review your correction and vote to approve or reject it.
comments
We did not receive enough feedback on this tab! Please rate:
print report bad tab
1 2 3 4 5
1 comment total.
0 reply
trevor.ford.583 24 wrote on April 5 2014, 08:58 pm

I think the intro and outro should be like this
--------------------------------
--------------------------------
-----------5---------------4----- G,G,Am
------7--------7-------5-------5
----0----0-----------0---0-------
---------------------------------

guest
You may want to rate the tab now too:
select rating
Please do not post tabs as comments. Select "correction" instead!