Oops, an error
Loading. Please wait.

The Wicked Ones Tab

version 1
version 1

Whole song

1,413 views 6 this week
no commentswrite comment
1 2 3 4 5
please rate
add to favorites
launch autoscroll
font size
0
reset
how to read this tab
guitar tuner
Tab Pro tools
  • play this tab
  • loop segment
  • change instrument
  • show fretboard
  • metronome
×
Best way to learn
"The Wicked Ones"
Autoscroll
slow
fast
+/-
esc
set tempo
stop
Contributor
Difficulty
Tuning
intermediate
C# G# C# F# A# D#
Artist: 10 Years
Album: Feeding The Wolves
Song: The Wicked Ones

Tunning: Drop Db/C# (Db Ab Db Gb Bb eb) or (C# G# C# F# A# D#)
Tabbed by: Sylahr
eMail: sylahr@hotmail.com

---KEY---
h=hammer ons
p=pull offs
pm . =palm mute
/=slide up neck
\=slide down neck
---KEY---


Intro
Clean              x3
eb|-----------------|-----------------|
Bb|-----------------|-----------------|
Gb|-----------------|-----------------|
Db|-------------3p0-|-3-3-3-3-3-2-2-2-|
Ab|---3p0-0-3p0-----|-1-1-1-1-1-0-0-0-|
Db|-0---------------|-----------------|

Verse
Clean              x3     repeat bar one then:      
eb|-----------------|------------------|------------------|
Bb|-----------------|------------------|------------------|
Gb|-----------------|-----------------o|-----------------o|
Db|-------------3p0-|-3-3-3-3-3-2-2-2--|-3-3-3-3-3-5-5-5--|x2
Ab|---3p0-0-3p0-----|-1-1-1-1-1-0-0-0-o|-1-1-1-1-1-3-3-3-o|
Db|-0---------------|------------------|------------------|

Transition                    x3
eb|----------------------------|-------------------------|
Bb|----------------------------|-------------------------|
Gb|------10109-7---------------|-------------------------|
Db|-00-0-----------------------|-------------------------|
Ab|-00-0-8-8-7-5-10101010-8888-|-------------------------|
Db|-00-0---------10101010-8888-|-0-33--0-33--0-35--0-35--|

Chorus
eb|-----------------------------------|
Bb|-----------------------------------|
Gb|-----------------------------------|
Db|-00-0-1010-00-0-88-00--------------|x4
Ab|-00-0-1010-00-0-88-00--------------|
Db|-00-0-1010-00-0-88-00-0553355-1010-|

Bridge
eb|------------------------------|
Bb|------------------------------|
Gb|------------------------------|
Db|------------------------------|x4
Ab|-00-0---00-0---00-0-------3h5-|
Db|-00-0---00-0---00-0----3h5----|

eb|--------------------------------------------|
Bb|--------------------------------------------|
Gb|--------------------------------------------|
Db|--------------------------------------------|x3
Ab|----------5-----------------------------3h5-|
Db|-00-0--3h5-0--0--3h5-3-0--0--3h5-3p0-3h5----|

eb|---------------------------------|
Bb|---------------------------------|
Gb|---------------------------------|
Db|---------------------------------|
Ab|----------5----------------------|
Db|-00-0--3h5-0--0--3h5-3-0--0--3h5-|

Ending
eb|--------------------------------------------|
Bb|--------------------------------------------|
Gb|--------------------------------------------|
Db|--------------------------------------------|x2
Ab|----------5-----------------------------3h5-|
Db|-00-0--3h5-0--0--3h5-3-0--0--3h5-3p0-3h5----|


ORDER=======
Intro
Verse
Transition
Chorus
Verse
Transition
Chorus
Bridge
Chorus
Ending



One of my favorite 10 Years songs. There it is.

The Wicked, The Wicked, The Wicked ONES!

-Sylahr
comments
We did not receive enough feedback on this tab! Please rate:
print report bad tab
1 2 3 4 5
I want to post or [tab]
guest
You may want to rate the tab now too:
select rating
Please do not post tabs as comments. Select "correction" instead!