Oops, an error
Loading. Please wait.
We have an official Wasteland tab made by UG professional guitarists. Check out the tab »
×
457 views 27 this week
no commentswrite comment
1 2 3 4 5
3 more votes to show rating
add to favorites
×
Save as Personal and add changes to this tab that will be seen only by you. Learn more ›
×
You can save this tab as Personal to edit and correct it or add notes. All changes will be seen only by you. Learn more »
launch autoscroll
font size
0
reset
how to read this tab
guitar tuner
backing track
0:00
0:00
edit
Autoscroll
slow
fast
+/-
esc
set tempo
stop
-------------------------------------------------------------------------------
10 Years - Wasteland acoustic
98 Rock's MetroPCS Lounge https://www.youtube.com/watch?v=4-Lyl0S8byY
-------------------------------------------------------------------------------
Tabbed by: Jacob Jancik
E-mail:

Tuning: Drop C# [modified] (C#G#C#F#C#C#)


Intro (0:08)

C#|-----0-------------0-------0---------------------------------------------------------------|
C#|-----0-------------0-------0---------------------------------------------------------------|
F#|---------------------------0---------------------------------------------------------------|
C#|--1-------1/3---3----------5---------------------------------------------------------------|
G#|--1-------1/3---3----------5---------------------------------------------------------------|
C#|--1-------1/3---3----------5---------------------------------------------------------------|


(0:21)

C#|-----0---0----------------0---0------------------------------------------------------------|
C#|-----0---0----------------0---0------------------------------------------------------------|
F#|---------0------5-------------0------5-----------------------------------------------------|
C#|--1------1------5------3------3------5-----------------------------------------------------|
G#|--1------1------3------3------3------3-----------------------------------------------------|
C#|--1------1------x------3------3------x-----------------------------------------------------|


Verse (0:28)

C#|-------------------------------------------------------------------------------------------| x3
C#|-------------------------------------------------------------------------------------------|
F#|---------------------------------------------------2----3~---------5--2--------------------|
C#|--5----8----7----7~-----5----8----7----7~-----1----1----1~-----0---------3-0-0--3-0--3-0---|
G#|--5----5----5----8~-----5----5----5----8~-----1----1----1~-----0---------3-0-0--3-0--3-0---|
C#|--5----5----5----5~-----5----5----5----5~-----1----1----1~-----0---------3-0-0--3-0--3-0---|

C#|-------------------------------------------------------------------------------------------|
C#|-------------------------------------------------------------------------------------------|
F#|-------------------------------------------------------------------------------------------|
C#|--5----8----7----7~-----5----8----7----7~---x----------------------------------------------|
G#|--5----5----5----8~-----5----5----5----8~---x----------------------------------------------|
C#|--5----5----5----5~-----5----5----5----5~---x----------------------------------------------|


Pre chorus (1:15)

C#|-----0---0----------------0---0------------------------------------------------------------|
C#|-----0---0----------------0---0------------------------------------------------------------|
F#|---------0------5-------------0------5-----------------------------------------------------|
C#|--1------1------5------3------3------5-----------------------------------------------------|
G#|--1------1------3------3------3------3-----------------------------------------------------|
C#|--1------1------x------3------3------x-----------------------------------------------------|


Chorus (1:22)

C#|--0----------0----0-----------0----0-------------------------------------------------------| x2
C#|--0----------0----0-----------0----0-------------------------------------------------------|
F#|--0---------------0----5-----------0----5--------------------------------------------------|
C#|--5--------1------1----5----3------3----5--------------------------------------------------|
G#|--5--------1------1----3----3------3----3--------------------------------------------------|
C#|--5--------1------1----x----3------3----x--------------------------------------------------|


Verse (1:50)

C#|-------------------------------------------------------------------------------------------|
C#|-------------------------------------------------------------------------------------------|
F#|---------------------------------------------------2----3~---------5--2--------------------|
C#|--5----8----7----7~-----5----8----7----7~-----1----1----1~-----0---------3-0-0--3-0--3-0---|
G#|--5----5----5----8~-----5----5----5----8~-----1----1----1~-----0---------3-0-0--3-0--3-0---|
C#|--5----5----5----5~-----5----5----5----5~-----1----1----1~-----0---------3-0-0--3-0--3-0---|

C#|------------------------------------------------------|
C#|------------------------------------------------------|
F#|------------------------------------------------------|
C#|--3/5----5----8----7----7~-----5----8----7----7~---x--|
G#|--3/5----5----5----5----8~-----5----5----5----8~---x--|
C#|--3/5----5----5----5----5~-----5----5----5----5~---x--|


Pre chorus (2:10)

C#|-----0---0----------------0---0------------------------------------------------------------|
C#|-----0---0----------------0---0------------------------------------------------------------|
F#|---------0------5-------------0------5-----------------------------------------------------|
C#|--1------1------5------3------3------5-----------------------------------------------------|
G#|--1------1------3------3------3------3-----------------------------------------------------|
C#|--1------1------x------3------3------x-----------------------------------------------------|


Chorus (2:17)

C#|--0----------0----0-----------0----0-------------------------------------------------------| x2
C#|--0----------0----0-----------0----0-------------------------------------------------------|
F#|--0---------------0----5-----------0----5--------------------------------------------------|
C#|--5--------1------1----5----3------3----5--------------------------------------------------|
G#|--5--------1------1----3----3------3----3--------------------------------------------------|
C#|--5--------1------1----x----3------3----x--------------------------------------------------|


Bridge (2:44)

C#|--0---------0---------0--------------------------------------------------------------------| x4
C#|--0---------0---------0--------------------------------------------------------------------|
F#|--0----------------------------------------------------------------------------------------|
C#|--5-------1------1/3-----------------------------------------------------------------------|
G#|--5-------1------1/3-----------------------------------------------------------------------|
C#|--5-------1------1/3-----------------------------------------------------------------------|

(3:12)

C#|--0----------------------------------------------------------------------------------------|
C#|--0----------------------------------------------------------------------------------------|
F#|--0----------------------------------------------------------------------------------------|
C#|--5----------------------------------------------------------------------------------------|
G#|--5----------------------------------------------------------------------------------------|
C#|--5----------------------------------------------------------------------------------------|


(3:19)

C#|-----0---------0------------------0--------------------------------------------------------|
C#|-----0---------0----------0-------0--------------------------------------------------------|
F#|----------------------------------0--------------------------------------------------------|
C#|--1-------1/3----------3---3------5--------------------------------------------------------|
G#|--1-------1/3--------3------------5--------------------------------------------------------|
C#|--1-------1/3------3--------------5--------------------------------------------------------|


Pre chorus (3:32)

C#|-----0---0----------------0---0------------------------------------------------------------|
C#|-----0---0----------------0---0------------------------------------------------------------|
F#|---------0------5-------------0------5-----------------------------------------------------|
C#|--1------1------5------3------3------5-----------------------------------------------------|
G#|--1------1------3------3------3------3-----------------------------------------------------|
C#|--1------1------x------3------3------x-----------------------------------------------------|


Chorus (3:40)

C#|--0----------0----0-----------0----0-------------------------------------------------------| x2
C#|--0----------0----0-----------0----0-------------------------------------------------------|
F#|--0---------------0----5-----------0----5--------------------------------------------------|
C#|--5--------1------1----5----3------3----5--------------------------------------------------|
G#|--5--------1------1----3----3------3----3--------------------------------------------------|
C#|--5--------1------1----x----3------3----x--------------------------------------------------|


Outro (3:53)

C#|--0~---------------------------------------------------------------------------------------|
C#|--0~---------------------------------------------------------------------------------------|
F#|--0~----------12--------12-----------------------------------------------------------------|
C#|--5~------5---x-----5---x------------------------------------------------------------------|
G#|--5~------5---10----5---10-----------------------------------------------------------------|
C#|--5~------5---x-----5---x------------------------------------------------------------------|

(4:00)

C#|-----0---0----------------0---0------0~----------------------------------------------------|
C#|-----0---0----------------0---0------0~----------------------------------------------------|
F#|---------0------5-------------0------0~----------------------------------------------------|
C#|--1------1------5------3------3------5~----------------------------------------------------|
G#|--1------1------3------3------3------5~----------------------------------------------------|
C#|--1------1------x------3------3------5~----------------------------------------------------|

----------------------

            
            
Suggest correction
Creating personal tab
Creating personal tab
You can edit any tab online and save it as your Personal.

You can edit, replace or remove any tab part or add personal notes – all changes will be seen only by you.

Personal tabs can be accessed anytime from any device, even offline.
Learn more »
Give kudos to tab author, rate the tab!
1 2 3 4 5
comments
print report bad tab
guest
You may want to rate the tab now too:
select rating
Wanna post a correction for this tab? Suggest correction