Oops, an error
Loading. Please wait.
3,830 views 1 this week
3 commentsread comments
1 2 3 4 5
x 6
add to favorites
×
Save as Personal and add changes to this tab that will be seen only by you. Learn more ›
×
You can save this tab as Personal to edit and correct it or add notes. All changes will be seen only by you. Learn more »
launch autoscroll
font size
0
reset
how to read this tab
guitar tuner
backing track
0:00
0:00
edit
Autoscroll
slow
fast
+/-
esc
set tempo
stop
Author
Difficulty
10 Years - Wasteland
The Autumn Effect - Track 6

Tuning: Open Dsus4 1/2 Flat
        Db Ab Db Gb Db Db   

Give credit to Jeff Perrin of Guitar One mag for this one! I suspected an alternate
tuning near the 1st and 2nd strings, but I never would have figured it out. This is
fully complete and deadly accurate.

INTRO
Guitar 1 - Clean
Db|---0----------0----(0)-----------|
Db|--------------------0------------|
Gb|--------------------x------------|
Db|--------------------5------------|
Ab|1--------1s3--------5------------|
Db|1--------1s3--------5------------|

Both Guitars - Dist.
Db|---0-----------0-----------------|
Db|---0-----------0-----------------|
Gb|---------------------------------|
Db|-----------5-----------5-5-5-5---|
Ab|1--------0-3-3-------0-3-3-3-3---|
Db|1--------0---3-------0-----------|

1st VERSE 
Part A
Guitar 1 - Dist.
   ......................................................................
Db|------------------------------------------------------------------------|
Db|------------------------------------------------------------------------|
Gb|----------------------------------------------------------555-----------|
Db|5555888777---------5555888777-------------7777888888887777---777777777--|
Ab|----------88888888-----------88888888-1111------------------------------|
Db|------------------------------------------------------------------------|

Guitar 2 - Dist.
   ............. ... ................................. ............
Db|------------------------------------------------------------------------|
Db|------------------------------------------------------------------------|
Gb|------------------------------------------------------------------------|
Db|------------------------------------------------------------------------|
Ab|5555555555555-888-5555555555555888s1111111111111111-000000003333--------|
Db|5555555555555-888-5555555555555888s1111111111111111-000000003333-0-3p0--|

1st VERSE  
Part B            
Guitar 1 - Dist.
   ......................................................................
Db|------------------------------------------------------------------------|
Db|------------------------------------------------------------------------|
Gb|----------------------------------------------------------555-----------|
Db|5555888777---------5555888777-------------7777888888887777---777777777--|
Ab|----------88888888-----------88888888-1111------------------------------|
Db|------------------------------------------------------------------------|

Guitar 2 - Dist.
   ............. ... ................................. ............
Db|------------------------------------------------------------------------|
Db|------------------------------------------------------------------------|
Gb|------------------------------------------------------------------------|
Db|------------------------------------------------------------------------|
Ab|5555555555555-888-5555555555555888s1111111111111111-000000000333--------|
Db|5555555555555-888-5555555555555888s1111111111111111-000000000333-0-3p0--|

1st VERSE
Part C 
Guitars 1 and 2 play same as above; Guitar 3 fill indicated below.

Guitar 3 - Dist.
   Die...withdraw...remorse...naming...time..you've tried..can...turning
Db|----12-----------12--10------------------------------12--------12-8x-|
Db|12------------12--------------------12----12----------------12-------|
Gb|------------------------10-------------------------------------------|
Db|---------------------------------------------------------------------|
Ab|---------------------------------------------------------------------|
Db|---------------------------------------------------------------------|

1st VERSE
Part D
Guitar 1  Slowly release PM -v
   .....................................
Db|-------------------------------------| |---0----------0--------------|
Db|-------------------------------------| |---0----------0--------------|
Gb|-------------------------------------| |-----------------------------|
Db|5555888777---------5555888777--------| |----------5----------5-5-5-5-|
Ab|----------88888888-----------88888888| |1-------0-3-3------0-3-3-3-3-|
Db|-------------------------------------| |1-------0---3------0---------|

Guitar 2 - Dist.
   ............. ... .............
Db|----------------------------------|    |---0----------0--------------|
Db|-------------------------------00-|    |---0----------0--------------|
Gb|-------------------------------xx-|    |-----------------------------|
Db|-------------------------------55-|    |----------5----------5-5-5-5-|
Ab|5555555555555-888-5555555555555550|    |1-------0-3-3------0-3-3-3-3-|
Db|5555555555555-888-5555555555555550|    |1-------0---3------0---------|

CHORUS  2x
Guitar 1 - Dist.
Db|---------------------------------------------------0--------0-----------|
Db|---------------------------------------------------0--------0-----------|
Gb|-----------------121212121212121212121414141515-------------------------|
Db|5555555555555555-x-x-x-x-x-x-x-x-x-x-x-x-x-x-x----------5--------5-5-5-5|
Ab|5555555555555555-1010101010101010101212121213130-1----0-3-3----0-3-3-3-3|
Db|5555555555555555-------------------------------0-1----0---3----0--------|

Guitar 2 Dist.
Db|---------------------------------------------------0--------0-----------|
Db|---------------------------------------------------0--------0-----------|
Gb|------------------------------------------------------------------------|
Db|5555555555555555-5-5-5-5-5-5-5-5-5-5-5-5-5-5-5----------5--------5-5-5-5|
Ab|5555555555555555-5-5-5-5-5-5-5-5-5-5-5-5-5-5-5-0-1----0-3-3----0-3-3-3-3|
Db|5555555555555555-5-5-5-5-5-5-5-5-5-5-5-5-5-5-5-0-1----0---3----0--------|

2nd VERSE
Play 1st VERSE Part A
Play 1st VERSE Part D
Play Chorus 2x

BRIDGE  4x
Guitar 1 - Dist.
Db|-----------------------------------|
Db|-----------------------------------|
Gb|-----------12121212-12s1010101010--|
Db|-----------x-x-x-x--x--x-x-x-x-x---|
Ab|5-5---5-5--10101010-10s8-8-8-8-8---|
Db|5-5---5-5--------------------------|

Guitar 2 - Dist.
Db|-----------------------------------|
Db|-----------------------------------|
Gb|-----------------------------------|
Db|-----------------------------------|
Ab|5-5---5-5--1-1-1-1--1s3-3-3-3-3-3--|
Db|5-5---5-5--1-1-1-1--1s3-3-3-3-3-3--|

BREAKDOWN
Guitar 1 - Clean
  Change.....Limbs..skin......Self......
Db|0-----------0--------0-----0--------------------------------------------|
Db|0-----------0--------0-----0--------------------------------------------|
Gb|x--------------------------x--------------------------------------------|
Db|5--------------------------5----fbck comes in from prev. chord distorted|
Ab|5---------1------1s3-------5--------------------------------------------|
Db|5---------1------1s3-------5--------------------------------------------|

Both Guitars - Dist.
Db|---0---------0---------------|
Db|---0---------0---------------|
Gb|-----------------------------|
Db|---------5---------5-5-5-5---|
Ab|1------0-3-3-----0-3-3-3-3---|
Db|1------0---3-----0-----------|

Play CHORUS 1x

OUTRO
Both Guitars - Dist.
   ....................
Db|----------------------------------------0---------0-----------|
Db|---------------------0--0--0--0-000-----0---------0-----------|
Gb|---------------------x--x--x--x-xxx---------------------------|
Db|---------------------5--5--5--5-555----------5----------------|
Ab|55555555555555555555-5--5--5--5-555-0-1----0-3-3-----3330-55--|
Db|55555555555555555555-5--5--5--5-555-0-1----0---3-----3330-55--|

            
            
Suggest correction
Creating personal tab
Creating personal tab
You can edit any tab online and save it as your Personal.

You can edit, replace or remove any tab part or add personal notes – all changes will be seen only by you.

Personal tabs can be accessed anytime from any device, even offline.
Learn more »
comments
print report bad tab
3 comments total.
0 reply
Covin 30 Oct 05, 2006 06:01 PM

did you tune it up or down? I tuned it up and it sounded twangy. O.o

0 reply
incubosity 1,595 Oct 06, 2006 04:30 AM

B string up, e string down... good luck.

0 reply
Kevin67 20 Oct 10, 2006 05:55 PM

copied from guitar world

guest
You may want to rate the tab now too:
select rating
Wanna post a correction for this tab? Suggest correction