Oops, an error
Loading. Please wait.

Cupid Tab

version 2
version 2
by 112
8,978 views 3 this week
3 commentsread comments
1 2 3 4 5
accurate
x 4
add to favorites
launch autoscroll
font size
0
reset
how to read this tab
guitar tuner
Autoscroll
slow
fast
+/-
esc
set tempo
stop
Help us to improve Ultimate-Guitar.com Take our survey!
×
Author
Difficulty
novice
E------------------------|----------------3-------|------------------------||
B---------------------4--|----------------4----4--|------------------------||
G-3--------0--1--3/5--3--|------3/5--3---------3--|-----3/5-3--3--------1--||
D----1--3----------------|------------------------|--1------------1--3-----||
A------------------------|------------------------|------------------------||
E------------------------|------------------------|------------------------||
Suggest correction
What's this?
You can suggest a correction to this tab. Community and Mods will review your correction and vote to approve or reject it.
comments
print report bad tab
3 comments total.
-1 reply
loco233 10 wrote on November 1 2006, 11:57 pm

short tab

0 reply
GR8one1009 14 wrote on December 16 2007, 05:10 pm

change 3rd part
to

-----
-----4-----4----4---
----3h5---3-----3----3---

-----
-----
-----
-----

sounds more accurate that way

0 reply
GR8one1009 14 wrote on December 16 2007, 05:12 pm

***sorry

--------------------
---------4-----4---4
---3h5---3-----3---3
--------------------
--------------------
--------------------

guest
You may want to rate the tab now too:
select rating
Please do not post tabs as comments. Select "correction" instead!