Oops, an error
Loading. Please wait.

Fall Apart Tab

version 2
version 2

Whole song

Interactive

by 1208
3,193 views 6 this week
no commentswrite comment
1 2 3 4 5
accurate
x 11
add to favorites
launch autoscroll
font size
0
reset
how to read this tab
guitar tuner
Tab Pro tools
  • play this tab
  • loop segment
  • change instrument
  • show fretboard
  • metronome
Autoscroll
slow
fast
+/-
esc
set tempo
stop
Contributor
1208.fall apart
tabber:Wobbler

X-mute
h-hammer
~-let ringgggg

great song...and this tab is (now) pretty correct so enjoY!

____________________________note___________________________________________
*bridge (i tabbed the bridge one string higher because theres only one   *  guitar)
*e|-------------9h10-9----------10--------------------|
*B|--------------------10-----------------------------|
*G|-----------------------11-12----12-11---11~-|-0~---|
*D|-7~-----------------------------------12-----------|
*A|-7~------------------------------------------------|
*E|-5~------------------------------------------------|
*changed into
*e|-------------------------------------------------|
*B|-------------14h15-14----------15----------------|
*G|----------------------14--------------------0~---|
*D|-7~----------------------16-17----17-16----16~---|
*A|-7~-------------------------------------17-------|
*E|-5~----------------------------------------------| 
___________________________________________________________________________

intro guitar two
e|----------------------------------------------------|
B|---------------------5-7----------------------------|
G|---7-6---7-6-4-7-6-7-------7-6---7-6-7-4-7-6-7-6-4--|
D|-5-----7-----------------5-----7--------------------|
A|----------------------------------------------------|
E|----------------------------------------------------|

e|-----------------------------------------------------------|
B|---------------------5-7-----------------------------------|
G|---7-6---7-6-4-7-6-7---------------------------------------|
D|-5-----7-----------------5-5----5-4----4-5----5-----7-5-4--|
A|-----------------------------55-----55-----55-----7--------|
E|-----------------------------------------------------------|

intro guitar one
e|-----------------------------------------------|
B|-----------------------------------------------|
G|-------------------7-7-77-------------------7~-|
D|-5-5-5-77-7-9-9-99-7-7-77-5-5-5-77-7-9-9-99-7~-|
A|-5-5-5-77-7-9-9-99-5-5-55-5-5-5-77-7-9-9-99-5~-|
E|-3-3-3-55-5-7-7-77--------3-3-3-55-5-7-7-77----|

e|---------------------------------------------------------------|
B|---------------------------------------------------------------|
G|-------------------7-7-77--------------------------------------|
D|-5-5-5-77-7-9-9-99-7-7-77-5-55-5-5-4-44-4-4-5-55-5-5-XXX-7-77/-|
A|-5-5-5-77-7-9-9-99-5-5-55-5-55-5-5-4-44-4-4-5-55-5-5-XXX-7-77/-|
E|-3-3-3-55-5-7-7-77--------3-33-3-3-2-22-2-2-3-33-3-3-XXX-5-55/-|

verse (x2)
e|--------------------------------------------------------------------|
B|--------------------------------------------------------------------|
G|-------------------7-XXXXXX-7-XXXXXX--------------------------------|
D|-9-XXXXXX-7-XXXXXX-7-XXXXXX-7-XXXXXX-5-55-5-4-44-4-5-55-5-XXX-7-77/-|
A|-9-XXXXXX-7-XXXXXX-5-XXXXXX-X-XXXXXX-5-55-5-4-44-4-5-55-5-XXX-7-77/-|
E|-7-XXXXXX-5-XXXXXX-------------------3-33-3-2-22-2-3-33-3-XXX-5-55/-|

pre-chorus
e|---------------------------------------------------------|
B|---------------------------------------------------------|
G|--------------7777---------------------------------------|
D|-9999-7-77-77-7777-7-77-77-55555555555555-77777777777777-|
A|-9999-7-77-77-5555-7-77-77-55555555555555-77777777777777-|
E|-7777-5-55-55------5-55-55-33333333333333-55555555555555-|
pm                           .............. ............

chorus
e|----------------------------------------------------------------|
B|----------------------------------------------------------------|
G|-----------------7-7-7-77-77-7-77-------------------------------|
D|-9-9-9-99-99-7-7-7-7-7-77-XX-X-XX-5-55-5-4-44-4-5-55-5-999-7-77-|
A|-9-9-9-99-99-7-7-5-5-5-55-55-5-55-5-55-5-4-44-4-5-55-5-999-7-77-|
E|-7-7-7-77-77-5-5------------------3-33-3-2-22-2-3-33-3-777-5-55-|

e|----------------------------------------------------------|
B|----------------------------------------------------------|
G|-----------------7-7-7-77-77-7-77-------------------------|
D|-9-9-9-99-99-7-7-7-7-7-77-XX-X-XX-5-55-5-4-44-4-5-55-5-9~-|
A|-9-9-9-99-99-7-7-5-5-5-55-55-5-55-5-55-5-4-44-4-5-55-5-9~-|
E|-7-7-7-77-77-5-5------------------3-33-3-2-22-2-3-33-3-7~-|

intro
verse
pre-chorus
chorus

bridge
e|-------------------------------------------------|
B|-------------14h15-14----------15----------------|
G|----------------------14--------------------0~---|
D|-7~----------------------16-17----17-16----16~---|
A|-7~-------------------------------------17-------|
E|-5~----------------------------------------------|


then some effects i cant get because i havent any technic

breakdown guitar one
e|------------------------------------------------------------|
B|------------------------------------------------------------|
G|-------------------------77-7-77-------------------------7~-|
D|-5-5-5-5-77-7-77-9-9-9-9-77-7-77-5-5-5-5-77-7-77-9-9-9-9-7~-|
A|-5-5-5-5-77-7-77-9-9-9-9-55-5-55-5-5-5-5-77-7-77-9-9-9-9-5~-|
E|-3-3-3-3-55-5-55-7-7-7-7---------3-3-3-5-55-5-55-7-7-7-7----|

e|----------------------------------------------------------------|
B|----------------------------------------------------------------|
G|-------------------------77-7-77--------------------------------|
D|-5-5-5-5-77-7-77-9-9-9-9-77-7-77-5-5-5-5-5-5-5-7-77777777777777-|
A|-5-5-5-5-77-7-77-9-9-9-9-55-5-55-5-5-5-5-5-5-5-7-77777777777777-|
E|-3-3-3-3-55-5-55-7-7-7-7---------3-3-3-3-3-3-3-5-55555555555555-|
pm                                   . . . . . .   ............

breakdown guitar two
e|----------------------------------------------------|
B|---------------------5-7----------------------------|
G|---7-6---7-6-4-7-6-7-------7-6---7-6-7-4-7-6-7-6-4--|
D|-5-----7-----------------5-----7--------------------|
A|----------------------------------------------------|
E|----------------------------------------------------|

e|--------------------------|
B|---------------------5-7--|
G|---7-6---7-6-4-7-6-7------|
D|-5-----7------------------|
A|--------------------------|
E|--------------------------|

chorus x2

outro
e|-----------------------|
B|-----------------------|
G|-----------------------|
D|-7-77-XXXXXXXXXXXXXX-9-|
A|-7-77-XXXXXXXXXXXXXX-9-|
E|-5-55-XXXXXXXXXXXXXX-7-|

pleaz RATE!
comments a.s.o at el_diablo7th@freenet.de
comments
print report bad tab
I want to post or [tab]
guest
You may want to rate the tab now too:
select rating
Please do not post tabs as comments. Select "correction" instead!