Oops, an error
Loading. Please wait.

Just Anyone Tab

by 1208
397 views 1 this week
no commentswrite comment
1 2 3 4 5
2 more votes to show rating
add to favorites
launch autoscroll
font size
0
reset
how to read this tab
guitar tuner
Autoscroll
slow
fast
+/-
esc
set tempo
stop
Help us to improve Ultimate-Guitar.com Take our survey!
×
Author
----------------------------------------------------------------------------|
----------------------------------------------------------------------------|
----------------------------------------------------------------------------|
>1208_anyone----------------------------------------------------------------|
>standart tuning------------------------------------------------------------|
>tabber: Wobbler------------------------------------------------------------|
----------------------------------------------------------------------------|
----------------------------------------------------------------------------|
----------------------------------------------------------------------------|
the greatest song i've ever heard...i must tab it out!
here it is!

intro guitar one (x2)
e|-------------------------------------|
B|-------------------------------------|
G|-7-7-77-77-7-7-77-77-7-7-77-77-------|
D|-7-7-77-77-7-7-77-77-7-7-77-77-88-55-|
A|-5-5-55-55-5-5-55-55-5-5-55-55-88-55-|
E|-------------------------------66-33-|

intro guitar two (x2)
e|-------------------------------------|
B|-------------------------------------|
G|-7-7-77-75-7-7-77-75-7-7-77-75-33-55-|
D|-x-x-xx-xx-x-x-xx-xx-x-x-xx-xx-xx-xx-|
A|-5-5-55-53-5-5-55-53-5-5-55-53-11-33-|
E|-------------------------------------|

pre-verse guitar one
e|--------------------------------------|
B|--------------------------------------|
G|-------------------55555555-666-------|
D|-3-333333333333333-55555555-666-777---|
A|-3-333333333333333-33333333-444-777---|
E|-1-111111111111111--------------555---|

pre-verse guitar two
e|--------------------------------------|
B|--------------------------------------|
G|--------------------------------------|
D|-7-777777777777777--------------------|
A|-x-xxxxxxxxxxxxxxx--------------------|
E|-5-555555555555555--------------------|

verse A (x2)
e|---------------------------------------|
B|---------------------------------------|
G|-7-777777-7-7-10-10--5-55-999----------|
D|-7-777777-7-7-10-10--5-55-999-8-88-555-|
A|-5-555555-5-5--8--8--3-33-777-8-88-555-|
E|------------------------------6-66-333-|
pm   ......

verse B (x2)
e|---------------------------------------|
B|---------------------------------------|
G|-7-77777-10-1010101010-5-55555---------|
D|-7-77777-10-1010101010-5-55555-8-88-55-|
A|-5-55555--8--8-8-8-8-8-3-33333-8-88-55-|
E|-------------------------------6-66-33-|

verse A
verse B

verse B second guitar (comes in at 0:47)
e|------------------------------|
B|------------------------------|
G|-7-7777-9-9999-10-1010-9-99-x-|
D|-x-xxxx-x-xxxx--x--x-x-x-xx-x-|
A|-5-5555-7-7777--8--8-8-7-77---|
E|------------------------------|

pre-chorus
e|--------------------------------|
B|--------------------------------|
G|---------------------55555555-5-|
D|-7-77777777-88888888-55555555-5-|
A|-7-77777777-88888888-33333333-3-|
E|-5-55555555-66666666------------|
pm   ........ ........ ......

chorus
e|-----------------------------------|
B|-----------------------------------|
G|----7-77------------5-5-555--------|
D|-77-7-77-88-3-33-33-5-5-555-888-55-|
A|-77-5-55-88-3-33-33-3-3-333-888-55-|
E|-55------66-1-11-11---------666-33-|

e|--------------------------------|
B|--------------------------------|
G|-7-77------------5-5-555--------|
D|-7-77-88-3-33-33-5-5-555-888-55-|
A|-5-55-88-3-33-33-3-3-333-888-55-|
E|------66-1-11-11---------666-33-|

intro (both guitars)
verse A
verse B
pre-chorus
chorus-
end with
e|---------|
B|---------|
G|-----7-7-|
D|-777-7-7-|
A|-777-5-5-|
E|-555-----|
pm ...

solo (comes in at 1:45) (x3)
e|----------------------------------------|
B|----------------------------------------|
G|-9--7--10-9-7h8p7-5--9--7--10-9-7h8p7-7-|
D|----------------------------------------|
A|----------------------------------------|
E|----------------------------------------|

solo end (at 2:00)
e|--------------------------------|
B|--------------------------------|
G|-9--7--10-9-7h8p7-5--9--7--10-9-|
D|--------------------------------|
A|--------------------------------|
E|--------------------------------|

solo rythm (comes in at 1:47)
e|-----------------------------------------------------|
B|-----------------------------------------------------|
G|-------------5-55-----7-77------------------5-55-----|
D|-888-3-33-33-5-55-777-7-77------888-3-33-33-5-55-777-|
A|-888-3-33-33-3-33-777-5-55------888-3-33-33-3-33-777-|
E|-666-1-11-11------555-----------666-1-11-11------555-|
pm                  ...
e|---------------------------------------------------------------------|
B|---------------------------------------------------------------------|
G|-7-77-77-7-77-------------5-55-----7-77-77-7-77-------------5-55-----|
D|-7-77-77-7-77-888-3-33-33-5-55-777-7-77-77-7-77-888-3-33-33-5-55-777-|
A|-5-55-55-5-55-888-3-33-33-3-33-777-5-55-55-5-55-888-3-33-33-3-33-777-|
E|--------------666-1-11-11------555--------------666-1-11-11------555-|
pm                                                                 ...

bridge
e|-------------------------------------------------------------|
B|-------------------------------------------------------------|
G|-7-7-----------------5-55-----7-77------------------5-55-----|
D|-7-7-----888-3-33-33-5-55-777-7-77------888-3-33-33-5-55-777-|
A|-5-5-----888-3-33-33-3-33-777-5-55------888-3-33-33-3-33-777-|
E|---------666-1-11-11------555-----------666-1-11-11------555-|
pm                          ...
e|--------------------------------------------------------------------|
B|--------------------------------------------------------------------|
G|-7-77-77-7-77-------------5-55-----7-77-77-7-77-------------5-55-55-|
D|-7-77-77-7-77-888-3-33-33-5-55-777-7-77-77-7-77-888-3-33-33-5-55-55-|
A|-5-55-55-5-55-888-3-33-33-3-33-777-5-55-55-5-55-888-3-33-33-3-33-33-|
E|--------------666-1-11-11------555--------------666-1-11-11---------|

e|-----------|
B|-----------|
G|-----------|
D|-777777777-
A|-777777777-
E|-555555555-

chorus (x3)
e|--------------------------------|
B|--------------------------------|
G|-7-77------------5-5-555--------|
D|-7-77-88-3-33-33-5-5-555-888-55-|
A|-5-55-88-3-33-33-3-3-333-888-55-|
E|------66-1-11-11---------666-33-|

last chorus
e|-------------------------------------|
B|-------------------------------------|
G|-7-77------------5-5-555---------7-7-|
D|-7-77-88-3-33-33-5-5-555-888-555-7-7-|
A|-5-55-88-3-33-33-3-3-333-888-555-5-5-|
E|------66-1-11-11---------666-333-----|
pm                             ...

>thats it...have fun with this awesome song!

>comments,questions...el_diablo7th@freenet.de
Suggest correction
Give kudos to tab author, rate the tab!
1 2 3 4 5
comments
print report bad tab
guest
You may want to rate the tab now too:
select rating
Wanna post a correction for this tab? Suggest correction