Oops, an error
Loading. Please wait.

Next Big Thing Tab

by 1208
1,563 views 3 this week
no commentswrite comment
1 2 3 4 5
please rate
add to favorites
launch autoscroll
font size
0
reset
how to read this tab
guitar tuner
Autoscroll
slow
fast
+/-
esc
set tempo
stop
Help us to improve Ultimate-Guitar.com Take our survey!
×
Author
                      
Tabbed by : Anti-wise
Band: 1208
Song: Next Big Thing
Album: Turn Of The Screw 

Tuning - standard

(Intro)

  Gtr.1
e|----------------|----------------|----------------|
B|----------------|----------------|----------------|
G|----------------|----------------|----------------|
D|----------------|----------------|15----14--------|
A|----------------|17----16--------|----------------|
E|18----17--------|----------------|----------------|

  Gtr.1
e|----------------|----------------|----------------|----------------|
B|----------------|----------------|----------------|----------------|
G|----------------|----------------|----------------|----------------|
D|15----14--------|----------------|----------------|----------------|
A|----------------|----------------|----------------|----------------|
E|----------------|----------------|----------------|----------------|
 |Gtr.2                                                              |
e|----------------|----------------|----------------|----------------|
B|------------6---|----------------|------------6---|----------------|
G|7-7-7-5-7---5---|--3-3-3-2-2-0-2-|7-7-7-5-7---5---|--3-3-3-2-2-0-2-|
D|7-7-7-5-7---3---|--3-3-3-2-2-X-2-|7-7-7-5-7---3---|--3-3-3-2-2-X-2-|
A|5-5-5-3-5-------|--1-1-1-0-0-3-0-|5-5-5-3-5-------|--1-1-1-0-0-3-0-|
E|----------------|----------------|----------------|----------------|

  Gtr.2
e|----------------|----------------|----------------|----------------|
B|------------6---|----------------|----------------|----------------|
G|7-7-7-5-7---5---|--3-3-3-2-2-0-2-|----------------|----------------|
D|7-7-7-5-7---3---|--3-3-3-2-2-0-2-|5-5-5-5-5-5-5-5-|7-7-7-7-7-7-7-7-|
A|5-5-5-3-5-------|--1-1-1-0-0-X-0-|5-5-5-5-5-5-5-5-|7-7-7-7-7-7-7-7-|
E|----------------|------------3---|3-3-3-3-3-3-3-3-|5-5-5-5-5-5-5-5-|


(Verse.1(2))x2

  Gtr.2
e|----------------|----------------|----------------|----------------|
B|----------------|----------------|----------------|----------------|
G|--X-7-X-7-7-7-7-|--X-7-X-7-7-7-7-|--X-7-X-7-7-7-7-|--X-7-X-5-5-5-7-|
D|--X-X-X-X-X-X-X-|--X-X-X-X-X-X-X-|--X-X-X-X-X-X-X-|--X-X-X-X-X-X-X-|
A|--X-5-X-5-5-5-5-|--X-5-X-5-5-5-5-|--X-5-X-5-5-5-5-|--X-5-X-3-3-3-5-|
E|----------------|----------------|----------------|----------------|

|----------------|----------------|----------------|----------------|
|----------------|----------------|----------------|----------------|
|--X-7-X-7-7-7-7-|--X-7-X-7-7-7-7-|----------------|5-5-5-5-5-5-5-5-|(x2)
|--X-X-X-X-X-X-X-|--X-X-X-X-X-X-X-|3-3-3-3-3-3-3-3-|5-5-5-5-5-5-5-5-|
|--X-5-X-5-5-5-5-|--X-5-X-5-5-5-5-|3-3-3-3-3-3-3-3-|3-3-3-3-3-3-3-3-|
|----------------|----------------|1-1-1-1-1-1-1-1-|----------------|

  Gtr.2
e|----------------|----------------|----------------|----------------|
B|----------------|----------------|----------------|----------------|
G|----------------|----------------|----------------|----------------|
D|7---7-7-7-7-7-7-|8---8-8-8-8-8-8-|10--101010101010|10--------------|
A|7---7-7-7-7-7-7-|8---8-8-8-8-8-8-|10--101010101010|10--------------|
E|5---5-5-5-5-5-5-|6---6-6-6-6-6-6-|8---8-8-8-8-8-8-|8---------------|

|----------------|----------------|----------------|----------------|
|------------6---|----------------|------------6---|----------------|
|7-7-7-5-7---5---|--3-3-3-2-2-0-2-|7-7-7-5-7---5---|--3-3-3-2-2-0-2-|
|7-7-7-5-7---3---|--3-3-3-2-2-X-2-|7-7-7-5-7---3---|--3-3-3-2-2-X-2-|
|5-5-5-3-5-------|--1-1-1-0-0-3-0-|5-5-5-3-5-------|--1-1-1-0-0-3-0-|
|----------------|----------------|----------------|----------------|

|----------------|----------------|----------------|----------------|
|------------6---|----------------|----------------|----------------|
|7-7-7-5-7---5---|--3-3-3-2-2-0-2-|----------------|----------------|
|7-7-7-5-7---3---|--3-3-3-2-2-0-2-|5-5-5-5-5-5-5-5-|7-7-7-7-7-7-7-7-|
|5-5-5-3-5-------|--1-1-1-0-0-X-0-|5-5-5-5-5-5-5-5-|7-7-7-7-7-7-7-7-|
|----------------|------------3---|3-3-3-3-3-3-3-3-|5-5-5-5-5-5-5-5-|


(Verse.2(last part))

  Gtr.2
e|----------------|----------------|----------------|----------------|
B|------------6---|----------------|------------6---|----------------|
G|7-7-7-5-7---5---|--3-3-3-2-2-0-2-|7-7-7-5-7---5---|--3-3-3-2-2-0-2-|
D|7-7-7-5-7---3---|--3-3-3-2-2-X-2-|7-7-7-5-7---3---|--3-3-3-2-2-X-2-|
A|5-5-5-3-5-------|--1-1-1-0-0-3-0-|5-5-5-3-5-------|--1-1-1-0-0-3-0-|
E|----------------|----------------|----------------|----------------|

|----------------|----------------|----------------|
|------------6---|----------------|----------------|
|7-7-7-5-7---5---|--3-3-3-2-2-0-2-|----------------|
|7-7-7-5-7---3---|--3-3-3-2-2-0-2-|5-5-5-5-5-5-5-5-|
|5-5-5-3-5-------|--1-1-1-0-0-X-0-|5-5-5-5-5-5-5-5-|
|----------------|------------3---|3-3-3-3-3-3-3-3-|

(Solo)

  Gtr.1
e|----------------|
B|--------10------|
G|----------------|
D|----------------|
A|----------------|
E|----------------|
 |Gtr.2           |
e|----------------|
B|----------------|
G|----------------|
D|7---------------|
A|7---------------|
E|5---------------|



  Gtr.1
e|----------------|----------------|----------------|----------------|
B|----------------|----------------|----------------|10----8---------|
G|10----------10--|9---------10p9--|7---------------|------------10--|
D|----------------|----------------|----------------|----------------|
A|----------------|----------------|----------------|----------------|
E|----------------|----------------|----------------|----------------|
 |Gtr.2                                                              |
e|----------------|----------------|----------------|----------------|
B|----------------|----------------|----------------|----------------|
G|----------------|----------------|----------------|----------------|
D|X-X-8-X-8-8-X-8-|X-X-10X-1010X-10|X-X-12X-1212X-12|X-X-12X-1212X-12|
A|X-X-8-X-8-8-X-8-|X-X-10X-1010X-10|X-X-12X-1212X-12|X-X-12X-1212X-12|
E|X-X-6-X-6-6-X-6-|X-X-8-X-8-8-X-8-|X-X-10X-1010X-10|X-X-10X-1010X-10|

|6-----------6-p5|----------------|----------------|----------------|
|----------------|8---------8h10p8|6-6-6-8-8-8-1010|6-6-6-8-8-108-6-|
|----------------|----------------|7-7-7-7-7-7-7-7-|7-7-7-7-7-7-7-7-|
|----------------|----------------|0-0-0-0-0-0-0-0-|0-0-0-0-0-0-0-0-|
|----------------|----------------|----------------|----------------|
|----------------|----------------|----------------|----------------|
|                                                                   |
|----------------|----------------|----------------|----------------|
|----------------|----------------|----------------|----------------|
|----------------|----------------|----------------|----------------|
|X-X-8-X-8-8-X-8-|X-X-10X-1010X-10|X-X-12X-1212X-12|X-X-12X-1212X-12|
|X-X-8-X-8-8-X-8-|X-X-10X-1010X-10|X-X-12X-1212X-12|X-X-12X-1212X-12|
|X-X-6-X-6-6-X-6-|X-X-8-X-8-8-X-8-|X-X-10X-1010X-10|X-X-10X-1010X-10|

e|----------------|
B|6---------------|
G|7---------------|
D|0---------------|
A|----------------|
E|----------------|
 |                |
e|----------------|
B|----------------|
G|----------------|
D|12--------------|
A|12--------------|
E|10--------------|


  Gtr.1
e|----------------|----------------|----------------|----------------|
B|----------------|----------------|----------------|----------------|
G|----------------|----------------|----------------|----------------|
D|----------------|----------------|15----14--------|15----14--------|
A|----------------|17----16--------|----------------|----------------|
E|18----17--------|----------------|----------------|----------------|

  Gtr.2
e|----------------|----------------|----------------|----------------|
B|------------6---|----------------|------------6---|----------------|
G|7-7-7-5-7---5---|--3-3-3-2-2-0-2-|7-7-7-5-7---5---|--3-3-3-2-2-0-2-|
D|7-7-7-5-7---3---|--3-3-3-2-2-X-2-|7-7-7-5-7---3---|--3-3-3-2-2-X-2-|
A|5-5-5-3-5-------|--1-1-1-0-0-3-0-|5-5-5-3-5-------|--1-1-1-0-0-3-0-|
E|----------------|----------------|----------------|----------------|


  Gtr.2
e|----------------|----------------|----------------|----------------|
B|------------6---|----------------|------------6---|----------------|
G|7-7-7-5-7---5---|--3-3-3-2-2-0-2-|7-7-7-5-7---5---|--3-3-3-2-2-0-2-|
D|7-7-7-5-7---3---|--3-3-3-2-2-X-2-|7-7-7-5-7---3---|--3-3-3-2-2-X-2-|
A|5-5-5-3-5-------|--1-1-1-0-0-3-0-|5-5-5-3-5-------|--1-1-1-0-0-3-0-|
E|----------------|----------------|----------------|----------------|

|----------------|----------------|----------------|----------------|
|------------6---|----------------|----------------|----------------|
|7-7-7-5-7---5---|--3-3-3-2-2-0-2-|----------------|----------------|(x2)
|7-7-7-5-7---3---|--3-3-3-2-2-0-2-|5-5-5-5-5-5-5-5-|7-7-7-7-7-7-7-7-|
|5-5-5-3-5-------|--1-1-1-0-0-X-0-|5-5-5-5-5-5-5-5-|7-7-7-7-7-7-7-7-|
|----------------|------------3---|3-3-3-3-3-3-3-3-|5-5-5-5-5-5-5-5-|


e|----------------|----------------|----------------|----------------|
B|----------------|----------------|----------------|----------------|
G|7-7-7-7-7-7-7-7-|7-7-7-7-7-7-7-7-|7-7-7-7-7-7-7-7-|7-7-7-7-7-7-7-7-|
D|X-X-X-X-X-X-X-X-|X-X-X-X-X-X-X-X-|X-X-X-X-X-X-X-X-|X-X-X-X-X-X-X-X-|
A|5-5-5-5-5-5-5-5-|5-5-5-5-5-5-5-5-|5-5-5-5-5-5-5-5-|5-5-5-5-5-5-5-5-|
E|----------------|----------------|----------------|----------------|

|----------------|----------------|----------------|----------------|
|----------------|----------------|----------------|----------------|
|7-7-7-7-7-7-7-7-|7-7-7-7-7-7-7-7-|5-5-5-5-5-5-5-5-|6-6-6-6-6-6-6-6-|
|X-X-X-X-X-X-X-X-|X-X-X-X-X-X-X-X-|X-X-X-X-X-X-X-X-|X-X-X-X-X-X-X-X-|
|5-5-5-5-5-5-5-5-|5-5-5-5-5-5-5-5-|3-3-3-3-3-3-3-3-|4-4-4-4-4-4-4-4-|
|----------------|----------------|----------------|----------------|

|----------------||
|----------------||
|7---------------||
|7---------------||
|5---------------||
|----------------||
Suggest correction
Give kudos to tab author, rate the tab!
1 2 3 4 5
comments
print report bad tab
guest
You may want to rate the tab now too:
select rating
Wanna post a correction for this tab? Suggest correction