Oops, an error
Loading. Please wait.

Wave Pool tab

by 123
63 views 1 this week
no commentswrite comment
1 2 3 4 5
3 more votes to show rating
add to favorites
×
Save as Personal and add changes to this tab that will be seen only by you. Learn more ›
×
You can save this tab as Personal to edit and correct it or add notes. All changes will be seen only by you. Learn more »
launch autoscroll
font size
0
reset
how to read this tab
guitar tuner
edit
Autoscroll
slow
fast
+/-
esc
set tempo
stop
-------------------------------------------------------------------------------
                             Wave Pool - 1,2,3
-------------------------------------------------------------------------------
Tabbed by:sir-rex-a-lot

Tuning:Drop D
(Intro)(Rest your fingers over the 8th fret)
e|-(8)----(8)-----(8)-----(8)----|
B|-(8)----(8)-----(8)-----(8)----|
G|-(8)----(8)-----(8)-----(8)----|
D|-(8)----(8)-----(8)-----(8)----|
A|-(8)----(8)-----(8)-----(8)----|
D|-(8)----(8)-----(8)-----(8)----|


(Intro)(Play slowly and let the low D note ring):
e|------------------------------|
B|----------------------7-------|
G|----7--9~--7~----7-9~-7-7~----|x4
D|-9--7--9~--7~-9--7-9~---7~----|
A|-9------------9---------------|
D|-0------------0---------------|

(Play abit faster)
e|--------------------------------------------------------|
B|-------------------7------------------------------------|
G|----7--9--7----7-9-7-7~---------------------------------|
D|-9--7--9--7-9--7-9---7~--7-9-7---5--5-5--(5)--5--5-5----|x2
A|-9----------9------------------9-5--5-5--(5)--5--5-5----|
D|-0----------0--------------------5--5-5--(5)--5--5-5----|

(Verse)
"Only today..."
  F#m                           Em
e|------2-2---2-------2-2----2-------0-0---0-------0-0---0-----|
B|------2-2---2-------2-2----2-------0-0---0-------0-0---0-----|
G|------2-2---2-------2-2----2-------0-0---0-------0-0---0-----|
D|-4--4-----4----4--4------4----2--2-----2----2--2-----2-------|
A|-4--4-----4----4--4------4----2--2-----2----2--2-----2-------|
D|-4--4-----4----4--4------4----2--2-----2----2--2-----2-------|

   F#m                          Em              A7
e|------2-2---2-------2-2----2-------0-0---0-0--0-0--0-0----|
B|------2-2---2-------2-2----2-------0-0---0-0--2-2--2-2----|
G|------2-2---2-------2-2----2-------0-0---0-0--0-0--0-0----|
D|-4--4-----4----4--4------4----2--2-----2------2-2--2-2----|
A|-4--4-----4----4--4------4----2--2-----2------0-0--0-0----|
D|-4--4-----4----4--4------4----2--2-----2------------------|


(Chorus)
"Down in the wave pool..."
   D                Cdim    B7      Em              Adim    A7      F#m             Cdim   B7
e|-5-5-5-5-5-5-5-5--2-2-2-2-2-2-2-2-0-0-0-0-0-0-0-0-0-0-0-0-0-0-0-0-2-2-2-2-2-2-2-2-2-2-2-2-2-2-|
B|-7-7-7-7-7-7-7-7--4-4-4-4-4-4-4-4-0-0-0-0-0-0-0-0-3-3-3-3-2-2-2-2-2-2-2-2-2-2-2-2-4-4-4-4-4-4-|
G|-7-7-7-7-7-7-7-7--2-2-2-2-2-2-2-2-0-0-0-0-0-0-0-0-0-0-0-0-0-0-0-0-2-2-2-2-2-2-2-2-2-2-2-2-2-2-|
D|-7-7-7-7-7-7-7-7--4-4-4-4-4-4-4-4-2-2-2-2-2-2-2-2-2-2-2-2-2-2-2-2-4-4-4-4-4-4-4-4-4-4-4-4-4-4-|
A|-5-5-5-5-5-5-5-5--3-3-3-3-2-2-2-2-2-2-2-2-2-2-2-2-0-0-0-0-0-0-0-0-4-4-4-4-4-4-4-4-3-3-3-3-2-2-|
D|-0-0-0-0-0-0-0-0------------------2-2-2-2-2-2-2-2-----------------4-4-4-4-4-4-4-4-------------|

       Em     A7
e|-0-2-0~-----0~--------|
B|-0-2-0~-----2~--------|
G|-----0~-----0~--------|
D|-----2~-----2~--------|
A|-----2~-----0~--------|
D|-----2~---------------|

Repeat verse and chorus

(Bridge)

       Em     A7   F#m         Bm           Em
e|-----0~-----0~------2-2---2-----2-2----2------0-0---0--0--|
B|-----0~-----2~------2-2---2-----3-3----3------0-0---0--2--|
G|-----0~-----0~------2-2---2--4--4-4--4-4------0-0---0--0--|
D|-----2~-----2~---4------4----4-------4-----2------2----2--|
A|-----2~-----0~---4------4----2-------2-----2------2----0--|
D|-----2~----------4------4------------------2------2-------|

e|-----------------------------------------------------------------5~--|
B|---2-------4-----5-----7-----9-------11-------12-------14--------7~--|
G|-----------------------------------------------------------------7~--|
D|------2-2/4---4/5---5/7---7/9----9/11----11/12---12/14-----14/---7~--|
A|-----------------------------------------------------------------5~--|
D|-----------------------------------------------------------------0~--|

e|--------------------5--5--5--5---|
B|--------------------7--7--7--7---|
G|--------------------7--7--7--7---|
D|--------------------7--7--7--7---|x3
A|------------------7-5--5--5--5---|
D|-0--5-4-0--9--7-0---0--0--0--0---|

e|---------------------|
B|---------------------|
G|---------------------|
D|---------------------|
A|------------------7--|
D|-0--5-4-0--9--7-0----|


e|---------------------------------------------------------------------------|
B|---------------------------------------------------------------------------|
G|---------------------------------------------------------------------------|
D|---------------------------------------------------------------------------|x2
A|--5--5--5--5--5/4-4--4-4-4-4--4/2-2--2-2-2-2-2-4-5---2-2-2-2-2-0-0---------|
D|--0--0--0--0--0---0--0-0-0-0--0---0--0-0-0-0-0-0-0---0-0-0-0-0-0-0---------|

e|---------------------|
B|---------------------|
G|---------------------|
D|---------------------|
A|------------------7--|
D|-0--5-4-0--9--7-0----|

(Outro/Final Chorus)(Play Slowly
   D                Cdim    B7      Em              Adim    A7      F#m             Cdim     B7
e|-5-5-5-5-5-5-5-5--2-2-2-2-2-2-2-2-0-0-0-0-0-0-0-0-0-0-0-0-0-0-0-0-2-2-2-2-2-2-2-2-2-2-2-2-2-2-|
B|-7-7-7-7-7-7-7-7--4-4-4-4-4-4-4-4-0-0-0-0-0-0-0-0-3-3-3-3-2-2-2-2-2-2-2-2-2-2-2-2-4-4-4-4-4-4-|
G|-7-7-7-7-7-7-7-7--2-2-2-2-2-2-2-2-0-0-0-0-0-0-0-0-0-0-0-0-0-0-0-0-2-2-2-2-2-2-2-2-2-2-2-2-2-2-|
D|-7-7-7-7-7-7-7-7--4-4-4-4-4-4-4-4-2-2-2-2-2-2-2-2-2-2-2-2-2-2-2-2-4-4-4-4-4-4-4-4-4-4-4-4-4-4-|
A|-5-5-5-5-5-5-5-5--3-3-3-3-2-2-2-2-2-2-2-2-2-2-2-2-0-0-0-0-0-0-0-0-4-4-4-4-4-4-4-4-3-3-3-3-2-2-|
D|-0-0-0-0-0-0-0-0------------------2-2-2-2-2-2-2-2-----------------4-4-4-4-4-4-4-4-------------|

       Em     A7    Em    A7    F#m    Cdim   Em
e|-0-2-0~-----0~----0~----0~----2~-----2~-----0~--|
B|-0-2-0~-----2~----0~----2~----2~-----4~-----0~--|
G|-----0~-----0~----0~----0~----2~-----2~-----0~--|
D|-----2~-----2~----2~----2~----4~-----4~-----2~--|
A|-----2~-----0~----2~----0~----4~-----3~-----2~--|
D|-----2~-----------2~----------4~------------2~--|

e|----------------------------------------------------------------------|
B|---2-------4-----5-----7-----9-------11-------12-------14-----14~-----|
G|----------------------------------------------------------------------|
D|------2-2/4---4/5---5/7---7/9----9/11----11/12---12/14-----14---------|
A|----------------------------------------------------------------------|
D|----------------------------------------------------------------------|

************************************

| /   slide up
| \   slide down
| h   hammer-on
| p   pull-off
| ~   vibrato
| +   harmonic
| x   Mute note
| b   Bend
| pb  Pre-bend
| br  Bend release
| pbr Pre-bend release
| brb Bend release bend

************************************

            
            
Suggest correction
Creating personal tab
Creating personal tab
You can edit any tab online and save it as your Personal.

You can edit, replace or remove any tab part or add personal notes – all changes will be seen only by you.

Personal tabs can be accessed anytime from any device, even offline.
Learn more »
Give kudos to tab author, rate the tab!
1 2 3 4 5
comments
print report bad tab
guest
You may want to rate the tab now too:
select rating
Wanna post a correction for this tab? Suggest correction