Oops, an error
Loading. Please wait.

Alcho Tab

503 views 1 this week
no commentswrite comment
1 2 3 4 5
x 3
add to favorites
launch autoscroll
font size
0
reset
how to read this tab
guitar tuner
Autoscroll
slow
fast
+/-
esc
set tempo
stop
Help us to improve Ultimate-Guitar.com Take our survey!
×
12 foot hotdog,Alcho.
Tabbed by peter mackenzie,gimmie69z@hotmail.com.
  
Artist: 12 Foot Hotdog
Song: Alcho(holic)

12 foot hotdog is a new and upcoming band who fucken rock!!!
This is their first single( i heard it's about one of the band members).
Any way it goes like this.

tuning : drop D

intro:

e|-12-13-15-15-12---------------
B|-13-13-13-13-13--------------
G|-----------------------------
D|-----------------------------
A|------------------------------
E|-----------------------------

then...
------------------------------
------------------------------
------------------------------
-0-0-0-7-5-3-2-0-2-0----------
-0-0-0-7-5-3-2-0-2-0----------
-0-0-0-7-5-3-2-0-2-0----------

the verse is just the last set of chords palm muted.

chorus:

--------------------------------
---------------------------------
-------------4-4-4-2-6/9---------------
-0h7-7-7-5-6-4-4-4-2-x/x----------------    <-- x3
-0h7-7-7-5-6-2-2-2-0-4/7----5-3-2-------
-0h7-7-7-5-6----------------------4-1-0-

then...

--------------------------------
----------------------------------
--9\4-------------------------------
--9\4--4-4-4-3-2-0-0-0-----------------
--7\2--4-4-4-3-2-0-0-0-----------------
-------4-4-4-3-2-0-0-0-----------------

bridge:

-12-13-15-13-15-17-17-17-17----------------
-13-13-13-13-13-17-17-17-17-----------------------
------------------------------5-5-5----------------
------------------------------5-5-5--5-5h7p5h8------ < let the '8' rig out
------------------------------3-3-3----------------
----------------------------------------------------

then the chorus again then end on the low F#

for those who haven't heard them... go out and buy the cd !!!!( they really need the money!) 

:: Ultimate Guitar Archive :: 
http://www.ultimate-guitar.com
Suggest correction
Give kudos to tab author, rate the tab!
1 2 3 4 5
comments
print report bad tab
guest
You may want to rate the tab now too:
select rating
Wanna post a correction for this tab? Suggest correction