Oops, an error
Loading. Please wait.

Broken Tab

version 1
version 1
8,680 views 1 this week
4 commentsread comments
1 2 3 4 5
x 5
add to favorites
×
Save as Personal and add changes to this tab that will be seen only by you. Learn more ›
×
You can save this tab as Personal to edit and correct it or add notes. All changes will be seen only by you. Learn more »
save as personal
new!
launch autoscroll
font size
0
reset
how to read this tab
guitar tuner
Autoscroll
slow
fast
+/-
esc
set tempo
stop
Author
----------------------------------------------------------------------------
                             BROKEN SOLO - 12 Stones
----------------------------------------------------------------------------
Tabbed by: Matt
Email: vanquish385@hotmail.com

Tuning: Standard

This is the solo that starts at 2:00 into the song

e|-------------------------------------------------|
B|-------------------------------------------------|
G|-------------00----------------------11----------|
D|-00-33-22-33----33-22-00----33-22-33----33-22-33-|
A|-------------------------11----------------------|
E|-------------------------------------------------|

2 times palm muted, 2 times not

This is my first tab, and I'm pretty new at the guitar, so plz send any corrections
to my e-mail, and I know im an idiot, so dont say that in your e-mail. kind helpful
comments only plz.

Key(you dont need it)

| /  slide up
| \  slide down
| h  hammer-on
| p  pull-off
| ~  vibrato
| +  harmonic
| x  Mute note
============================================================================
Suggest correction
comments
print report bad tab
4 comments total. Showing first comments.
0 reply
der.da 30 Oct 23, 2005 01:38 AM

first it's drop d tuning and then teh solo starts with the low d string then a strin in 8th fret and so on ... but it also works with your tab...

0 reply
ovationstylee 16 Jul 31, 2008 04:53 PM

this tab is perfect. this is exactly the way i play it and it sounds fine. but instead of the open frets i just stretch down to 5, it seems easier for me that way.

0 reply
12stoneslover33 249 Mar 27, 2011 12:36 PM

the ending is wrong. its

e|-------------------------------------------------|
B|-------------------------------------------------|
G|-------------00----------------------55-33-22-33-|
D|-00-33-22-33----33-22-00----33-22-33-------------|
A|-------------------------11----------------------|
E|-------------------------------------------------|

and also, he moves it all the way up to the 12th fret on the low D string, like so
|-------------------------------------------------------------------------|
|-------------------------------------------------------------------------|
|-------------------------------------------------------------------------|
|-------------------------------------------------------------------------|
|--------------------1010------------------------------1515-1313-1212-1313|
|-1212-1515-1414-1515----1515-1414-1212-1515-1414-1515--------------------|

guest
You may want to rate the tab now too:
select rating
Wanna post a correction for this tab? Suggest correction