Oops, an error
Loading. Please wait.

Broken Bass Tab

version 4
version 4

Whole song

Interactive

675 views 1 this week
no commentswrite comment
1 2 3 4 5
please rate
add to favorites
launch autoscroll
font size
0
reset
guitar tuner
Autoscroll
slow
fast
+/-
esc
set tempo
stop
Help us to improve Ultimate-Guitar.com Take our survey!
×
Author
Tuning: Drop D


Intro/Verse:
-------------------------------------------------------------|
--------------------------------------------33-------3-------|
--55--55--53--11---11--13--55--55--53-11--1----0-3-5---5-3-5-|
-------------------------------------------------------------|


Chorus:
-------------------------------------------------------------|
--------------------------------------------33-------3-------|
--55--55--53--11---11--13--55--55--53-11--1----0-3-5---5-3-5-|
-------------------------------------------------------------|

Verse:

Chorus:

Interlude:
-----------------------------------------------------|
-----------------------------------------------------|
-----8-8-8-8-12-12-12-12-----8-8-8-8-7-7-7-7-5-5-5-5-|
-0-0---------------------3-3-------------------------|


during guitar solo
-------------------|
-------------------|
-------------------|
--0~------0~-------|

then bass comes in
-------------------------------------------------------------------|
-------------------------------------------------10-10-8-8-7-7-8-8-|
----8-8-7-7-8-8-10-10-8-8-7-7-5-5----8-8-7-7-8-8-------------------|
-0-0------------------------------88-------------------------------|

-----------------------------------------------------------|
------------------------------------------------1010101010-|
----8-8-7-7-8-8-10-10-8-8-7-7-5-5----8-8-7-7-8-8-----------|
-0-0------------------------------88-----------------------|

Chorus
Suggest correction
What's this?
You can suggest a correction to this tab. Community and Mods will review your correction and vote to approve or reject it.
comments
We did not receive enough feedback on this tab! Please rate:
print report bad tab
1 2 3 4 5
guest
You may want to rate the tab now too:
select rating
Please do not post tabs as comments. Select "correction" instead!