Oops, an error
Loading. Please wait.

Broken Tab

version 6
version 6
3,943 views 1 this week
no commentswrite comment
1 2 3 4 5
excellent!
x 5
add to favorites
launch autoscroll
font size
0
reset
how to read this tab
guitar tuner
Autoscroll
slow
fast
+/-
esc
set tempo
stop
Help us to improve Ultimate-Guitar.com Take our survey!
×
Author
Gtr I (D G C F A D - Eric Weaver (standard full step down)
Gtr II (D A D G B E) - Eric Weaver (Drop D)
Gtr III (D G C F A D) - Eric Weaver (standard full step down)
Gtr IIII (D A D G B E) - Eric Weaver (Drop D)


 Chorus (Gtr.1) Intro:
  Q=96
          E5                D5                    C5   *music sounds whole step lower then written
 4/4
  Gtr I
  H    Q   s   S   S   S    E E S S  S   S  E E S E +S
|-------------------------------------------------------------||
|-------------------------------------------------------------||
|------------------------------4--------------7---------------||
|-----------    2--2--2----------2--2--2--2--2--7--7----------||
|-----------    2--2--2----------2--2--2--2--2--5--5----------||
|--x--x--x--x  0--0--0--x--x--x-0--0--0--0--------------------||


  ...                   C5         D5
  E E S S  S   S  E E S E +S
|---------------------------------||
|---------------------------------||
|-5-5-x-x-x--5-5-x-7-(7)----------||
|-5-5-x-x-x--5-5-x-7-(7)----------||
|-3-3-x-x-x--3-3-x-5-(5)----------||
|---------------------------------||


  D5                    C5       Bb5                   C5
  E E S S  S   S  E E S  E +S    E E S S  S   S  E E S E +S
|------------------------------|------------------------------------||
|------------------------------|------------------------------------||
|--4--4--x-x---4-4-4x--7-(-)-|-5-5-x-x-x--5-5-x-5-(5)-x--7----------||
|--2--2--x-x---2-2-2x--7-(7)-|-5-5-x-x-x--5-5-x-5-(5)-x--7----------||
|--2--2--x-x---2-2-2x--5-(5)-|-3-3-x-x-x--3-3-x-3-(3)-x--5----------||
|--0--0--x-x-x-0-0-0-------------------|----------------------------||
|
| Gtr II
| E E S S  S   S  E E S  E  S    E E S S  S   S  E E S E  S
|------------------------------|-----------------------------|
|------------------------------|-----------------------------|
|-7-7-7-7--7---7--7-7-7S10-10--|-3-3-3-3--3---3--3-3-3S5--5--|
|-x-x-x-x--x---x--x-x-xS=x--x--|-x-x-x-x--x---x--x-x-xSx--x--|
|-5-5-5-5--5---5--5-5-5S=8--8--|-1-1-1-1--1---1--1-1-1S3--3--|
|------------------------------|-----------------------------|


   Verse
    Gtr III
    E E E E E E E E   E E Q  E E E S S  5x
||------------------|-------------------||
||o------0----------|------------------o||
||----0----0------0-|------0------------||
||--2---------2h4---|--4/5--------------||
||o-----------------|------------------o||
||------------------|-------------------||


                             Gtr I
  E E E E E E E E   E E Q  E S S E S S
|-----------------|--------------------|
|-----------------|--------------------|
|-------0--------0|----0-----x-x---x-x-|
|-----0---0----0--|--5-------x-x---x-x-|
|--3--------3/5---|----------x-x---x-x-|
|-----------------|--------------------|


   Chorus (Gtr 4, With Gtr 1 playing Intro)
    D5                    C5      Bb5                   C5
    E E S S  S   S  E E S E +S    E E S S  S   S  E E S E +S
||------------------------------|--------------------------------||
||o-----------------------------|-----------------------------o--||
||--7-7-x-x---7-7-x-5-(5)-|-3-3-x-x---3-3-x-5-(5)----------------||
||--7-7-x-x---7-7-x-5-(5)-|-3-3-x-x---3-3-x-5-(5)----------------||
||o-5-5-x-x---5-5-x-3-(3)-|-1-1-x-x---1-1-x-3-(3)-o--------------||
||------------------------------|--------------------------------||


    D5                    C5       Bb5                   C5
    E E S S  S   S  E E S  E +S    E E S S  S   S  E E S E +S
||-------------------------------|--------------------------------||
||o------------------------------|-----------------------------o--||
||--7-7-x-x---7-7-x--5-(5)-|-3-3-x-x---3-3-x-5-(5)----------------||
||--7-7-x-x---7-7-x--5-(5)-|-3-3-x-x---3-3-x-5-(5)----------------||
||o-5-5-x-x---5-5-x--3-(3)-|-1-1-x-x---1-1-x-3-(3)-o--------------||
||-------------------------------|--------------------------------||
|
|   Gtr II
|   E E S S  S   S  E E S  E  S    E E S S  S   S  E E S E  S
||-------------------------------|------------------------------||
||o------------------------------|-----------------------------o||
||--7-7-7-7--7---7--7-7-7S10-10--|-3-3-3-3--3---3--3-3-3S5--5---||
||--x-x-x-x--x---x--x-x-xS=x--x--|-x-x-x-x--x---x--x-x-xSx--x---||
||o-5-5-5-5--5---5--5-5-5S=8--8--|-1-1-1-1--1---1--1-1-1S3--3--o||
||-------------------------------|------------------------------||


  2nd   Verse
    Gtr II
    E E E E E E E E   E E Q  E E E S S  5x
||------------------|-------------------||
||o-----------------|------------------o||
||------2-----------|-------------------||
||----3---3-0-3---3-|---0-3------3---3--||
||o-------------3---|-1------1S3-------o||
||--0---------------|-------------------||


                             Gtr II
  E E E E E E E E   E E Q  E S S E S S
|-----------------|--------------------|
|-----------------|--------------------|
|-----2-----------|----------x-x---x-x-|
|---3---3-0-3---3-|---0-3----x-x---x-x-|
|-------------3---|-1--------x-x---x-x-|
|-0---------------|--------------------|


   Chorus (With Guitar 1 playing its intro part again over top of this)
    D5                    C5      Bb5                   C5
    E E S S  S   S  E E S E +S    E E S S  S   S  E E S E +S
||------------------------------|--------------------------------||
||o-----------------------------|-----------------------------o--||
||--7-7-x-x---7-7-x-5-(5)-|-3-3-x-x---3-3-x-5-(5)----------------||
||--7-7-x-x---7-7-x-5-(5)-|-3-3-x-x---3-3-x-5-(5)----------------||
||o-5-5-x-x---5-5-x-3-(3)-|-1-1-x-x---1-1-x-3-(3)-o--------------||
||------------------------------|--------------------------------||


    D5                    C5       Bb5                   C5
    E E S S  S   S  E E S  E +S    E E S S  S   S  E E S E +S
||-------------------------------|--------------------------------||
||o------------------------------|-----------------------------o--||
||--7-7-x-x---7-7-x--5-(5)-|-3-3-x-x---3-3-x-5-(5)----------------||
||--7-7-x-x---7-7-x--5-(5)-|-3-3-x-x---3-3-x-5-(5)----------------||
||o-5-5-x-x---5-5-x--3-(3)-|-1-1-x-x---1-1-x-3-(3)-o--------------||
||-------------------------------|--------------------------------||
|
|   Gtr IIII
|   E E S S  S   S  E E S  E  S    E E S S  S   S  E E S E  S
||-------------------------------|------------------------------||
||o------------------------------|-----------------------------o||
||--7-7-7-7--7---7--7-7-7S10-10--|-3-3-3-3--3---3--3-3-3S5--5---||
||--x-x-x-x--x---x--x-x-xS=x--x--|-x-x-x-x--x---x--x-x-xSx--x---||
||o-5-5-5-5--5---5--5-5-5S=8--8--|-1-1-1-1--1---1--1-1-1S3--3--o||
||-------------------------------|------------------------------||


   Interlude   Gtrs 2 and 4
    D5 F           G          F5 F           E  D
    Q   E  S  S  E  E  E  E   Q   E  S  S  E Q  E  4x
||--------------------------|----------------------||
||o-------------------------|---------------------o||
||-----10-10-10-10S12-12-12-|----10-10-10-10S9S=7--||
||--0---x--x--x--xS=x--x--x-|-3---x--x--x--xSxS=x--||
||o-0---8--8--8--8S10-10-10-|-3---8--8--8--8S7S=5-o||
||--0-----------------------|-3--------------------||


   Guitar Solo Gtr 2
    PM--------------------------------------------------------------|
    S S S S S S S S S S S S S S S S   S S S S S S S S S S S S S S S S
||----------------------------------|-----------------------------------||
||o---------------------------------|-----------------1-1--------------o||
||------------------0-0-------------|---------------------3-3-2-2-3-3---||
||--0-0-3-3-2-2-3-3-----3-3-2-2-0-0-|-----3-3-2-2-3-3-------------------||
||o---------------------------------|-1-1------------------------------o||
||----------------------------------|-----------------------------------||
|
|   Gtr IIII
|   PM|
|   S S E   Q       H                 W
||----------------------------------|-----------------------------------||
||o---------------------------------|----------------------------------o||
||--7-7-----------------------------|-3---------------------------------||
||--7-7-----------------------------|-3---------------------------------||
||o-5-5-----------------------------|-1--------------------------------o||
||----------------------------------|-----------------------------------||


  PM---------------------------------------
  S S  S  S S S  S  S  S  S  S  S S S S S
|-----------------------------------------|
|-----------------------------------------|
|----------------------0--0---------------|
|-0-0--3--3-2-2--3--3--------3--3-2-2-0-0-|
|-----------------------------------------|
|-----------------------------------------|
|
| Gtr IIII
| S S  S  S S S  S  S  S  S  S  S S S S S
|-----------------------------------------|
|-----------------------------------------|
|-7-7-10-10-9-9-10-10-12-12-10-10-9-9-2-2-|
|-x-x--x--x-x-x--x--x--x--x--x--x-x-x-x-x-|
|-5-5--8--8-7-7--8--8-10-19--8--8-7-7-0-0-|
|-----------------------------------------|


 ------------------------------------------|
  S S  S  S S S  S  S  S  S  S  S  S  S  S  S
|---------------------------------------------|
|----------------------1--1-------------------|
|----------------------------3--3--2--2--3--3-|
|------3--3-2-2--3--3-------------------------|
|-1-1-----------------------------------------|
|---------------------------------------------|
|
| S S  S  S S S  S  S  S  S  S  S  S  S  S  S
|---------------------------------------------|
|---------------------------------------------|
|-3-3-10-10-9-9-10-10-17-17-15-15-14-14-15-15-|
|-x-x--x--x-x-x--x--x--x--x--x--x--x--x--x--x-|
|-1-1--8--8-7-7--8--8-15-15-13-13-12-12-13-13-|
|---------------------------------------------|


  PM------------------------------------------------------------|
  S S  S  S S S  S  S  S  S  S  S S S S S   S S  S  S S S  S  S  Q   +Q
|-----------------------------------------|--------------------------------|
|-----------------------------------------|----------------------1---(1)/--|
|----------------------0--0---------------|--------------------------------|
|-0-0--3--3-2-2--3--3--------3--3-2-2-0-0-|------3--3-2-2--3--3------------|
|-----------------------------------------|-1-1----------------------------|
|-----------------------------------------|--------------------------------|
|
| Gtr IIII
| S S  S  S S S  S  S  S  S  S  S S S S S   S S  S  S S S  S  S  Q   +Q
|-----------------------------------------|--------------------------------|
|-----------------------------------------|--------------------------------|
|-7-7-10-10-9-9-10-10-12-12-10-10-9-9-2-2-|-3-3-10-10-9-9-10-10-17--(17)/--|
|-x-x--x--x-x-x--x--x--x--x--x--x-x-x-x-x-|-x-x--x--x-x-x--x--x--x---(x)/--|
|-5-5--8--8-7-7--8--8-10-19--8--8-7-7-0-0-|-1-1--8--8-7-7--8--8-15--(15)/--|
|-----------------------------------------|--------------------------------|


   Chorus
    D5                    C5      Bb5                   C5
    E E S S  S   S  E E S E +S    E E S S  S   S  E E S E +S
||------------------------------|--------------------------------||
||o-----------------------------|-----------------------------o--||
||--7-7-x-x---7-7-x-5-(5)-|-3-3-x-x---3-3-x-5-(5)----------------||
||--7-7-x-x---7-7-x-5-(5)-|-3-3-x-x---3-3-x-5-(5)----------------||
||o-5-5-x-x---5-5-x-3-(3)-|-1-1-x-x---1-1-x-3-(3)-o--------------||
||------------------------------|--------------------------------||


   Out-Chorus
    D5                    C5       Bb5                   C5
    E E S S  S   S  E E S  E +S    E E S S  S   S  E E S E +S   4x
||-------------------------------|--------------------------------||
||o------------------------------|-----------------------------o--||
||--7-7-x-x---7-7-x--5-(5)-|-3-3-x-x---3-3-x-5-(5)----------------||
||--7-7-x-x---7-7-x--5-(5)-|-3-3-x-x---3-3-x-5-(5)----------------||
||o-5-5-x-x---5-5-x--3-(3)-|-1-1-x-x---1-1-x-3-(3)-o--------------||
||-------------------------------|--------------------------------||
|
|   Gtr IIII
|   E E S S  S   S  E E S  E  S    E E S S  S   S  E E S E  S   4x
||-------------------------------|------------------------------||
||o------------------------------|-----------------------------o||
||--7-7-7-7--7---7--7-7-7S10-10--|-3-3-3-3--3---3--3-3-3S5--5---||
||--x-x-x-x--x---x--x-x-xS=x--x--|-x-x-x-x--x---x--x-x-xSx--x---||
||o-5-5-5-5--5---5--5-5-5S=8--8--|-1-1-1-1--1---1--1-1-1S3--3--o||
||-------------------------------|------------------------------||


  D5
  W          +W
|----------|--------*|
|----------|--------*|
|----------|--------*|
|-0--------|-(0)----*|
|-0--------|-(0)----*|
|-0--------|-(0)----*|


--------------------------------------------------------------------------------


Duration Legend
---------------
W - whole; H - half; Q - quarter; E - 8th; S - 16th; T - 32nd; X - 64th; a - acciaccatura
+ - note tied to previous; . - note dotted; .. - note double dotted
Uncapitalized letters represent notes that are staccato (1/2 duration)
Irregular groupings are notated above the duration line
Duration letters will always appear directly above the note/fret number it represents the
duration for.  Duration letters with no fret number below them represent rests.  Multi-
bar rests are notated in the form Wxn, where n is the number of bars to rest for.  Low
melody durations appear below the staff

Tablature Legend
----------------
 h   - hammer-on
 p   - pull-off
 b   - bend
 pb  - pre-bend
 r   - bend release (if no number after the r, then release immediately)
 /\  - slide into or out of (from/to "nowhere")
 s   - legato slide
 S   - shift slide
 - natural harmonic
[n]  - artificial harmonic
n(n) - tapped harmonic
 ~   - vibrato
 tr  - trill
 T   - tap
 TP  - trem. picking
 PM  - palm muting
\n/  - tremolo bar dip; n = amount to dip
 \n  - tremolo bar down
 n/  - tremolo bar up
/n\  - tremolo bar inverted dip
 =   - hold bend; also acts as connecting device for hammers/pulls
 <> - volume swell (louder/softer)
 x   - on rhythm slash represents muted slash
 o   - on rhythm slash represents single note slash

Misc Legend
-----------
 |  - bar
||  - double bar
||o - repeat start
o|| - repeat end
*|  - double bar (ending)
 :  - bar (freetime)
 $  - Segno
 &  - Coda
Tempo markers -  = BPM(8/16=s8/s16), where s8 = swing 8ths, s16 = swing 16ths
Suggest correction
What's this?
You can suggest a correction to this tab. Community and Mods will review your correction and vote to approve or reject it.
comments
print report bad tab
guest
You may want to rate the tab now too:
select rating
Please do not post tabs as comments. Select "correction" instead!